» » »

Moe, 32 Things Tabs (ver.2)

Artists:  A B C D E F G H I J K L M N O P Q R S T U V W X Y Z # 

32 Things Tabs (ver.2)

Moe Tabs
 Rating:
4/5 (4 votes)
32 Things lessons Tabs too difficult? Try these video lessons and learn fast
1
                Artist – Moe.
Song - 32 Things
Album – No Doy

Alright, Kurt here with another rockin’ tab, this time by a guy who you probably haven’t heard of before, but for those of you who have, go you.  Anyway, this is a fricken awesome song, I suggest you get this album, it’s pretty awesome.  Enough talking, on to the song.

-Here We Go-

This song starts off very fast, at about 130 beats per minute, and it’s mostly in 16th notes.  I know this is right; I listened to it a million times.  I’m not sure when he hammers on and pulls off, so I’m not gonna write those in.

  s s s s s s s s s s s s s s s s s s s s s s s s s s s+e
e------------------------------------------------------------
B------------------------------------------------------------
G-----------------3-4----------------------------------------
D-----------3-5-3-----5-3-5-3-0-3-5-3-0-------------3--------
A-----3-4-5-----------------------------4-3---3-4-5---5-4-3--
E—3-6---------------------------------------6--------------6-

  s s s s s s s s s s s s s s s s s s s s s s s s s s e e
e---------------------------------------------------------
B---------------------------------------------------------
G-----------------3-4-------------------------------------
D-----------3-5-3-----5-3-5-3-0-3-5-3-0-------------------
A-----3-4-5-----------------------------4-3---3-4-5-3-----
E—3-6---------------------------------------6---------6-3-

That's it, so have fun with it.  Don't worry if you don't get it on your first try, it's fricken hard, but keep on trying. -ROCK ON!!!-
-Kurt Andersen
            
Submit corrections

comments powered by Disqus
↑ Back to top | Moe Tabs for 32 Things. Lyrics for acoustic guitar and electric guitar. 1 Tablatures and chords are parodies/interpretations of the original songs. You may use it for private study, scholarship, research or language learning purposes only