» » »

Scar Bass tabs (ver.1)

Artists:  A B C D E F G H I J K L M N O P Q R S T U V W X Y Z # 

Scar Bass tabs (ver.1)

Missy Higgins
Rating:
4/5 (1 vote)

Hard to play? Try these video lessons and learn fast.
                Verse
------------------------------------------|
------------------------------------------|
----33------00----------------------------|
--------33--------11-----------------x----|5 for each verse

Pre-chorus
------------------------------------------------------|
------------------------------------------------------|
-----55-----------------------------------------------|
-------------11--------3------------- x2 for each p/c-|

Chorus
------------------------------------------|
------------------------------------------|
----3-33----------0-00--------------------|
----------3-33--------------1-11-----x----|2 for each chorus

piano solo pt.1
-----------------------------------------|
-----------------------------------------|
-----5----------3------------------------|
-----------1----------3------------------|
            
Hard to play? Try these video lessons and learn fast. | Correct




comments powered by Disqus
↑ Back to top | Tablatures and chords are parodies/interpretations of the original songs. You may use it for private study, scholarship, research or language learning purposes only