>
 >
Swing

Swing Guitar Tabs

Miss May I - Swing chords, tabs, tablatures, lyrics

Guitar lessons | Add/correct | Request | Top 50 tabs Artists:  A B C D E F G H I J K L M N O P Q R S T U V W X Y Z 0-9

Swing Guitar Tabs – Miss May I

CD, Sheet music, Poster

Do you like Swing? Share with your friends now
Bass TabsBass Tabs v2Tabs

Miss May I - Swing

Please rate and comment! 

*Fixed the tuning (Thanks Arsenik!)

~Ex 

Gtr 1 - Right
Gtr 2 - Left 
Gtr 3 - Middle 

[Chorus] Gtrs 1 2& 3 
00:12 - 00:38
D|--------------------|
A|--------------------|
F|--------------------|
C|-0-3-0----0-0-3-0-3-|   
G|-0-3-0----0-0-3-0-3-|
C|-0-3-0----0-0-3-0-3-|
PM . . .    . . . . . 

[Chorus p2] Gtrs 1 
00:26 - 00:36 (Not exact on the number of strums, just listen.)
D|------------------|
A|------------------|
F|------------------|
C|-1111111100000000-| x 4
G|------------------|
C|------------------|
 |^1ís and 0ís here^|
 |	              |
 | Gtr 2            |
D|------------------|
A|------------------|
F|------------------|
C|------------------| x 4 
G|-3333333322222222-|
C|------------------|

00:36 - 00:38 (Can barely hear this part so not 100% sure.)
  Gtr 3 
D|-----------------|
A|-----------------|
F|-----------------|
C|-0-0-0-0-0--00-0-|
G|-0-0-0-0-0--00-0-|
C|-0-0-0-0-0--00-0-|
PM . . . . .  .. . 


[Verse 1] Gtrs 1 & 2 
00:38 - 00:50
D|-----------------------------------------------------|
A|-----------------------------------------------------|
F|-----------------------------------------------------|
C|-----------------------------------------------------|
G|---------------------------------------6p4-0-----0-1-|
C|-33333333333333333333335555556666666-------0-7p6-0-1-|
PM ...................................       .     .

  Gtr 1
D|-----------------------|
A|-----------------------|
F|-----------------------|
C|--------0----------0-3-|
G|-9h10p9-0-11h12p11-0-3-|
C|--------0----------0-3-|
PM        .          .   |
 |                       |
 | Gtr 2                 |
D|-----------------------|
A|-----------------------|
F|-----------------------|
C|-------0-------0-3-----| 
G|-5h6p5-0-7h8p7-0-3-----|
C|-------0-------0-3-----|
PM       .       .

[Pre-Chorus] Gtrs 1 & 2 
00:51 - 01:02
D|-----------------------------------------|
A|-----------------------------------------|
F|-----------------------------------------|
C|-1-3-0----1-3-3-0-0---1-3-0----1-3-3-0-0-|
G|-1-3-0----1-3-3-0-0---1-3-0----1-3-3-0-0-|
C|-1-3-0----1-3-3-0-0---1-3-0----1-3-3-0-0-|
PM . . .    . . . . .   . . .    . . . . .


D|----------------------------------------|
A|----------------------------------------|
F|----------------------------------------|
C|----------------------------------0~---0|
G|-1-3-1-0-3-5-3-2-1-3-1-0-3-5-3-2--0~---0|
C|-1-3-1-0-3-5-3-2-1-3-1-0-3-5-3-2--0~---0|
PM . . . . . . . . . . . . . . . . 	 . 

[Chorus]
01:04 - 01:29

[Chorus p2]
01:17 - 01:29

[Verse]
01:30 - 01:41

[Pre-Chorus]
01:42 - 01:54

[Chorus]
01:55 - 02:21

[Chorus p2]
02:08 - 02:21

[Break] Gtrs 1 2 & 3 
02:20 - 02:33 (A little tricky with guitar 2)
D|------------------------------------------------|
A|------------------------------------------------|
F|---------------------Gtr2-----------------------|
C|-0~---0-0----0~--0-0-^0^-0----0~--0-0---0~--0-0-|
G|-0~---0-0----0~--0-0-^0^-0----0~--0-0---0~--0-0-|
C|-0~---0-0----0~--0-0-^0^-0----0~--0-0---0~--0-0-|


[Breakdown] Gtrs 1 & 2 
02:33 - 02:46 (Very tricky, listen carefully.)
D|--------------------------------------------------------|
A|--------------------------------------------------------|
F|--------------------------------------------------------|
C|-1-000-000-000-000-000-000-1~-1-000-000-000-000-000-000-|
G|-1-000-000-000-000-000-000-1~-1-000-000-000-000-000-000-|
C|-1-000-000-000-000-000-000-1~-1-000-000-000-000-000-000-|
PM . ... ... ... ... ... ...    . ... ... ... ... ... ...


D|-------------------------------------------------------|
A|-------------------------------------------------------|
F|-------------------------------------------------------|
C|-0-0-0--0-00-000-000--0-00-000-000--0-00-000-000-0-0-0-|
G|-0-0-0--0-00-000-000--0-00-000-000--0-00-000-000-0-0-0-|
C|-0-0-0--0-00-000-000--0-00-000-000--0-00-000-000-0-0-0-|
PM . . .  . .. ... ...  . .. ... ...  . .. ... ... . . . 

 
[Chorus]
02:48 - 03:12

[Chorus p2]
02:59 - 03:12

Song Order
-------------

[Chorus]    00:12 - 00:38
[Chorus p2] 00:26 - 00:36 
[Verse]     00:38 - 00:50
[Pre-Chorus]00:51 - 01:02
[Chorus]    01:04 - 01:16
[Chorus p2] 01:17 - 01:29
[Verse]     01:30 - 01:41
[Pre-Chorus]01:42 - 01:54
[Chorus]    01:55 - 02:07
[Chorus p2] 02:08 - 02:21
[Break]     02:20 - 02:33 
[Breakdown] 02:33 - 02:46 
[Chorus]    02:48 - 02:58
[Chorus p2] 02:59 - 03:12

Legend
--------------
PM - Palm Mute
H - Hammer-On
P - Pull-Off
~ - Vibrato or Let Ring 





Comments


Popular Miss May I tabs & chords
A Dance With Aera Cura Bass Tabs
Apologies Are For The Weak Tabs
Ballad Of A Broken Man Tabs
Creations Tabs
Forgive And Forget 2 Tabs
In Recognition Tabs
Masses Of A Dying Breed Tabs
Masses Of A Dying Breed 1 Tabs
My Hardship Tabs
Unfortunate Engagement Tabs


Song lyrics



↑ Back to top | Tablatures and chords are parodies/interpretations of the original songs. You may use it for private study, scholarship, research or language learning purposes only
© 2014 AZChords.com Contact us | Privacy policy | DMCA | Add/correct tabs | Request tabs | Top 50 tabs