» » »

Swing Bass tabs (ver.1)

Artists:  A B C D E F G H I J K L M N O P Q R S T U V W X Y Z # 

Swing Bass tabs (ver.1)

Miss May I
Rating:
0/5 (0 votes)

Hard to play? Try these video lessons and learn fast.
                [Chorus]    00:12 - 00:38
E |--------------------|
B |--------------------|   
F#|--------------------|
B |-0-3-0----0-0-3-0-3-|

[Chorus p2] 00:26 - 00:36
E |------------------|
B |------------------| x 4 
F#|-3333333322222222-|
B |------------------|

[Verse]     00:38 - 00:50
E |-----------------------------------------------------|
B |-----------------------------------------------------|
F#|---------------------------------------6p4-----------|
B |-33333333333333333333335555556666666-------0-7p6-0-1-|

[Pre-Chorus]00:51 - 01:02 
E |-----------------------------------------|
B |-----------------------------------------|
F#|-----------------------------------------|
B |-1-3-0----1-3-3-0-0---1-3-0----1-3-3-0-0-|

E |----------------------------------------|
B |------------------------------------~---|
F#|------------------------------------~---|
B |-1-3-1-0-3-5-3-2-1-3-1-0-3-5-3-2--0~---0|

[Chorus]    01:04 - 01:16
E |--------------------|
B |--------------------|   
F#|--------------------|
B |-0-3-0----0-0-3-0-3-|

[Chorus p2] 01:17 - 01:29
E |------------------|
B |------------------| x 4 
F#|-3333333322222222-|
B |------------------|

[Verse]     01:30 - 01:41
E |-----------------------------------------------------|
B |-----------------------------------------------------|
F#|---------------------------------------6p4-----------|
B |-33333333333333333333335555556666666-------0-7p6-0-1-|

[Pre-Chorus]01:42 - 01:54
E |-----------------------------------------|
B |-----------------------------------------|
F#|-----------------------------------------|
B |-1-3-0----1-3-3-0-0---1-3-0----1-3-3-0-0-|

E |----------------------------------------|
B |----------------------------------~-----|
F#|------------------------------------~---|
B |-1-3-1-0-3-5-3-2-1-3-1-0-3-5-3-2--0~---0|

[Chorus]    01:55 - 02:07
E |--------------------|
B |--------------------|   
F#|--------------------|
B |-0-3-0----0-0-3-0-3-|

[Chorus p2] 02:08 - 02:21
E |------------------|
B |------------------| x 4 
F#|-3333333322222222-|
B |------------------|

[Break]     02:20 - 02:33 
E |---------------------Gtr2-----------------------|
B |-------------------------------------~-----~----|
F#|------------------------------------------------|
B |-0~---0-0----0~--0-0-^0^-0----0~--0-0---0~--0-0-|

[Breakdown] 02:33 - 02:46
E |--------------------------------------------------------|
B |-----------------------------------------------~--------|
F#|-----------------------------------------------~--------|
B |-1-000-000-000-000-000-000-1~-1-000-000-000-000-000-000-|

E |-------------------------------------------------------|
B |-------------------------------------------------------|
F#|-------------------------------------------------------|
B |-0-0-0--0-00-000-000--0-00-000-000--0-00-000-000-0-0-0-|

[Chorus]    02:48 - 02:58
E |--------------------|
B |--------------------|   
F#|--------------------|
B |-0-3-0----0-0-3-0-3-|

[Chorus p2] 02:59 - 03:12
E |------------------|
B |------------------| x 4 
F#|-3333333322222222-|
B |------------------|

[Chorus]    00:12 - 00:38
[Chorus p2] 00:26 - 00:36 
[Verse]     00:38 - 00:50
[Pre-Chorus]00:51 - 01:02
[Chorus]    01:04 - 01:16
[Chorus p2] 01:17 - 01:29
[Verse]     01:30 - 01:41
[Pre-Chorus]01:42 - 01:54
[Chorus]    01:55 - 02:07
[Chorus p2] 02:08 - 02:21
[Break]     02:20 - 02:33 
[Breakdown] 02:33 - 02:46 
[Chorus]    02:48 - 02:58
[Chorus p2] 02:59 - 03:12
            
Hard to play? Try these video lessons and learn fast. | Correct




comments powered by Disqus
↑ Back to top | Tablatures and chords are parodies/interpretations of the original songs. You may use it for private study, scholarship, research or language learning purposes only