>
 >
A Dance With Aera Cura

A Dance With Aera Cura Guitar Tabs

Miss May I - A Dance With Aera Cura chords, tabs, tablatures, lyrics

Guitar lessons | Add/correct | Request | Top 50 tabs Artists:  A B C D E F G H I J K L M N O P Q R S T U V W X Y Z 0-9

A Dance With Aera Cura Guitar Tabs – Miss May I

CD, Sheet music, Poster

Do you like A Dance With Aera Cura? Share with your friends now
Bass TabsTabs
Band: Miss May I

This is a really little fun song to play. Just lots of palm mutes and breakdown strums. 
that, not really hard to play once you get used to the strumming.


* = palm mute
~ = hold note
b = bend
h = hammer on
p = pull off
\ = slide down


Intro:
Guitar 1: (Lead)                                             x4
|-------------------------------------------------------------|
|-------------------------------------------------------------|
|-------------------------------------------------------------|
|-------------------------------------------------------------|
|000-555888888555777777444444555888888555777777444444---------|
|000----------------------------------------------------------|
 ***

Intro
Guitar 2: (Rhythm)                                           x2
|-------------------------------------------------------------|
|-------------------------------------------------------------|
|-------------------------------------------------------------|
|-------------------------------------------------------------|
|0000--0000--0-0-0-0-0000--8888--8888--8-8-8-8-7777-----------|
|0000--0000--0-0-0-0-0000--8888--8888--8-8-8-8-7777-----------|
 ****  ****  * * * * ****  ****  ****  * * * * ****

Verse
Guitar 1: (Lead)
|---------------------------------------------------------------|
|---------------------------------------------------------------|
|---------------------------------------------------------------|
|---------------------------------------------------------------|
|--5h8---7h4---5h8---7h10---8h12--5h8---7h4---5h8---7h10---8h12-|
|00----0-----0-----0------0-----00----0-----0-----0------0------|
 **    *     *     *      *     **    *     *     *      *

|---------------------------------------------|
|---------------------------------------------|
|---------------------------------------------|
|---------------------------------------------|
|--7-7---8-8---10----7-7----10-8-7-8-7--------|
|88-8-888-8-888--8-77-7-777-----------10-8-7--|
 ** * *** * ***  * ** * ***

Verse
Guitar 2: (Rhythm)
|---------------------------------------------------------------|
|---------------------------------------------------------------|
|---------------------------------------------------------------|
|---------------------------------------------------------------|
|--5h8---7h4---5h8---7h10---8h12--5h8---7h4---5h8---7h10---8h12-|
|00----0-----0-----0------0-----00----0-----0-----0------0------|
 **    *     *     *      *     **    *     *     *      *


|---------------------------------------------|
|---------------------------------------------|
|---------------------------------------------|
|---------------------------8-7-5-7-5---------|
|--7-7---8-8---10----7-7---------------8-7-5--|
|88-8-888-8-888--8-77-7-777-------------------|
 ** * *** * ***  * ** * ***


Verse
Guitar 1: (Lead)
|---------------------------------------------------------------|
|---------------------------------------------------------------|
|---------------------------------------------------------------|
|---------------------------------------------------------------|
|--5h8---7h4---5h8---7h10---8h12--5h8---7h4---5h8---7h10---8h12-|
|00----0-----0-----0------0-----00----0-----0-----0------0------|
 **    *     *     *      *     **    *     *     *      *

|---------------------------------------------|
|---------------------------------------------|
|---------------------------------------------|
|--5-5---7-7---8----5-5-----------------------|
|---------------------------10-8-7-8-7--------|
|88-8-888-8-888-8-77-7-777-----------10-8-7---|
 ** * *** * *** * ** * ***

Verse
Guitar 2: (Rhythm)
|---------------------------------------------------------------|
|---------------------------------------------------------------|
|---------------------------------------------------------------|
|---------------------------------------------------------------|
|--5h8---7h4---5h8---7h10---8h12--5h8---7h4---5h8---7h10---8h12-|
|00----0-----0-----0------0-----00----0-----0-----0------0------|
 **    *     *     *      *     **    *     *     *      *

|---------------------------------------------|
|---------------------------------------------|
|---------------------------------------------|
|---------------------------8-7-5-7-5---------|
|--7-7---8-8---10----7-7---------------8-7-5--|
|88-8-888-8-888--8-77-7-777-------------------|
 ** * *** * ***  * ** * ***


Pre Chorus
Guitar 1: (Lead)                                                              x2
|------------------------------------------------------------------------------|
|------------------------------------------------------------------------------|
|------------------------------------------------------------------------------|
|--10-10---10-10---10----8-8---12-12---10----5-5---7-7---8---7-7---8-8---4-----|
|88--8--888--8--888--8-77-7-777--7--777--7-00-0-000-0-000-000-0-000-0-000-0----|
 **  *  ***  *  ***  * ** * ***  *  ***  * ** * *** * *** *** * *** * *** *

Pre Chorus
Guitar 2: (Rhythm)                                                               x2
|---------------------------------------------------------------------------------|
|---------------------------------------------------------------------------------|
|---------------------------------------------------------------------------------|
|--10-10---10-10---10----8-8---12-12---10----8-8---10-10---12---10-10---12-12---7-|
|88--8--888--8--888--8-77-7-777--7--777--7-00-0-000--0--000--000--0--000--0--000--|
 **  *  ***  *  ***  * ** * ***  *  ***  * ** * ***  *  ***  ***  *  ***  *  ***

Pre Pre Chorus
Guitar 1: (Lead)                                                    x2
|--------------------------------------------------------------------|
|--------------------------------------------------------------------|
|--------------------------------------------------------------------|
|--------------------------------------------------------------------|
|000--000--0-0-0-0-000--000--00000-000--000--0-0-0-0-000-000---4\----|
|000--000--0-0-0-0-000--000--00000-000--000--0-0-0-0-000-000---------|
 ***  ***  * * * * ***  ***  ***** ***  ***  * * * * *** ***

Pre Pre Chorus
Guitar 2: (Rhythm)                          x2
|--------------------------------------------|
|--------------------------------------------|
|--------------------------------------------|
|--8-8---10-10---12---10-10---12-12---8---7\-|
|00-0-000--0--000--000--0--000--0--000-------|
 ** * ***  *  ***  *** *   ***  *  ***
Chorus
Guitar 1: (Lead)                                                                     x2
|-------------------------------------------------------------------------------------|
|-------------------------------------------------------------------------------------|
|-------------------------------------------------------------------------------------|
|8---8--8----0----------------7-10----------------------------------------------------|
|10--10-10---0---------7-8-10-------10-10-10-10-10-10-10-10-10-10-10-10-10-10-10-10---|
|8---8--8----0--7-8-10--------------8--8--8--8--8--8--8--8--8--8--8--8--8--8--8--8----|
                * * *  * * *  * *
|-----------------------------------------------------------------------------|
|-----------------------------------------------------------------------------|
|-----------------------------------------------------------------------------|
|-----------------------------------------------------------------------------|
|8-8-8-8-8-8-12-12-12-12-12-12-10-10-10-10-8-8-8-8-8-8-8-8-8-8-8-8-8-8-8-8----|
|7-7-7-7-7-7-7--7--7--7--7--7--7--7--7--7--7-7-7-7-7-7-7-7-7-7-7-7-7-7-7-7----|

|---------------------------------------------------|
|---------------------------------------------------|
|---------------------------------------------------|
|---------------------------------------------------|
|10-10-10-10-10-10-10-12-12-12-12-12-12-12-12-12-12-|
|8--8--8--8--8--8--8--10-10-10-10-10-10-10-10-10-10-|

Chorus
Guitar 2: (Rhythm)
|-----------------------------------------------------------------------------------|
|-----------------------------------------------------------------------------------|
|-----------------------------------------------------------------------------------|
|8---8--8----0------------3-5-8-----------------------------------------------------|
|10--10-10---0------0-3-5---------10-10-10-10-10-10-10-10-10-10-10-10-10-10-10-10---|
|8---8--8----0--3-5---------------8--8--8--8--8--8--8--8--8--8--8--8--8--8--8--8----|
                * * * * * * * *
|-----------------------------------------------------------------|
|-----------------------------------------------------------------|
|-----------------------------------------------------------------|
|-----------------------------------------------------------------|
|8-8-8-8-8-8-8-8-8-8-8-8-8-8-8-8-0-0-0-0-0-0-0-0-0-0-0-0-0-0-0-0--|
|7-7-7-7-7-7-7-7-7-7-7-7-7-7-7-7-0-0-0-0-0-0-0-0-0-0-0-0-0-0-0-0--|

|-----------------------------------------------------------------------------------|
|-----------------------------------------------------------------------------------|
|-----------------------------------------------------------------------------------|
|-----------------------------------------------------------------------------------|
|5-5-5-5-5-5-5-5-5-5-5-5-5-5-5-5-10-10-10-10-10-10-10-10-10-10-10-10-10-10-10-10----|
|3-3-3-3-3-3-3-3-3-3-3-3-3-3-3-3-8--8--8--8--8--8--8--8--8--8--8--8--8--8--8--8-----|

|--------------------------------|
|--------------------------------|
|--------------------------------|
|--------------------------------|
|8-8-8-8-8-8-8-8-8-8-8-8-8-8-8-8-|
|7-7-7-7-7-7-7-7-7-7-7-7-7-7-7-7-|

Verse
Guitar 1: (Lead)
|-----------------------------------------|
|-----------------------------------------|
|-----------------------------------------|
|-----------0---------------------7--5----|
|10--10-10--0--0000--0-0-0-0--0---------7-|
|8---8--8---0--0000--0-0-0-0--0-----------|
               ****  * * * *  *

Pre Chorus
Guitar 1: (Lead)                                                            x2
|----------------------------------------------------------------------------|
|----------------------------------------------------------------------------|
|----------------------------------------------------------------------------|
|----------------------------------------------------------------------------|
|10-10---10-10---10----8-8---12-12---10----5-5---7-7---8---7-7---8-8---4-----|
|--8--888--8--888--8-77-7-777--7--777--7-00-0-000-0-000-000-0-000-0-000-0----|
   *  ***  *  ***  * ** * ***  *  ***  * ** * *** * *** *** * *** * *** *

Verse
Guitar 2: (Rhythm)
|-------------------------------------------|
|-------------------------------------------|
|-------------------------------------------|
|-----------0-------------------------------|
|10--10-10--0--0000--0-0-0-0--0---8--7--4---|
|8---8--8---0--0000--0-0-0-0--0-------------|
               ****  * * * *  *
Pre Chorus
Guitar 2: (Rhythm)                                                               x2
|---------------------------------------------------------------------------------|
|---------------------------------------------------------------------------------|
|---------------------------------------------------------------------------------|
|--10-10---10-10---10----8-8---12-12---10----8-8---10-10---12---10-10---12-12---7-|
|88--8--888--8--888--8-77-7-777--7--777--7-00-0-000--0--000--000--0--000--0--000--|
 **  *  ***  *  ***  * ** * ***  *  ***  * ** * ***  *  ***  ***  *  ***  *  ***

Pre Bridge
Guitar 1: (Lead)
|----------------------------------------------------------------------------------|
|----------------------------------------------------------------------------------|
|77777777777777777777777777777777-10-10-10-10-10-10-10-10-10-10-10-10-10-10-10-10--|
|xxxxxxxxxxxxxxxxxxxxxxxxxxxxxxxx-8--8--8--8--8--8--8--8--8--8--8--8--8--8--8--8---|
|55555555555555555555555555555555-8--8--8--8--8--8--8--8--8--8--8--8--8--8--8--8---|
|00000000000000000000000000000000-8--8--8--8--8--8--8--8--8--8--8--8--8--8--8--8---|

|---------------------------------|
|---------------------------------|
|7-7-7-7-7-7-7-7-7-7-7-7-7-7-7-7--|
|5-5-5-5-5-5-5-5-5-5-5-5-5-5-5-5--|
|5-5-5-5-5-5-5-5-5-5-5-5-5-5-5-5--|
|5-5-5-5-5-5-5-5-5-5-5-5-5-5-5-5--|

Pre Bridge
Guitar 2: (Rhythm)
|----------------------------------------------------------------------------------|
|----------------------------------------------------------------------------------|
|77777777777777777777777777777777-10-10-10-10-10-10-10-10-10-10-10-10-10-10-10-10--|
|xxxxxxxxxxxxxxxxxxxxxxxxxxxxxxxx-8--8--8--8--8--8--8--8--8--8--8--8--8--8--8--8---|
|55555555555555555555555555555555-8--8--8--8--8--8--8--8--8--8--8--8--8--8--8--8---|
|00000000000000000000000000000000-8--8--8--8--8--8--8--8--8--8--8--8--8--8--8--8---|

|---------------------------------|
|---------------------------------|
|7-7-7-7-7-7-7-7-7-7-7-7-7-7-7-7--|
|5-5-5-5-5-5-5-5-5-5-5-5-5-5-5-5--|
|5-5-5-5-5-5-5-5-5-5-5-5-5-5-5-5--|
|5-5-5-5-5-5-5-5-5-5-5-5-5-5-5-5--|

Bridge
Guitar 1: (Lead)                              x2
|----------------------------------------------|
|----------------------------------------------|
|-7--9--10-7--9-10-7--9--10-10-0-10-0-9-0-9-0--|
|--77-77--7-77-7--7-88-88--8-------------------|
|----------------------------------------------|
|----------------------------------------------|
   ** **  * ** *  * ** **  *
Bridge
Guitar 2: (Rhythm)             x2
|-------------------------------|
|-------------------------------|
|-------------------------------|
|-------------------------------|
|000-----000-000-000---00000----|
|000-----000-000-000---00000----|
 ***     *** *** ***   *****

Bridge
Guitar 1: (Lead)                              x2
|----------------------------------------------|
|----------------------------------------------|
|-7--9--10-7--9-10-7--9--10-10-0-10-0-9-0-9-9\-|
|--77-77--7-77-7--7-88-88--8-------------------|
|----------------------------------------------|
|----------------------------------------------|
   ** **  * ** *  * ** **  *
Bridge
Guitar 2: (Rhythm)                                       x2
|---------------------------------------------------------|
|-------8-----10-------8-----10-------8---10-10-10-8-8-8\-|
|10-------------10---------------10------------0--0-0-----|
|--10-10-10-10----10-10-10-10--10--8-8-8-8--8-------------|
|---------------------------------------------------------|
|---------------------------------------------------------|
   *  *  *  *     *  *  *  *   *   * * * *  *

Don't know this part
Guitar 1: (Lead)                                               x2
|---------------------------------------------------------------|
|---------------------------------------------------------------|
|8-------------0------------------4-----------------------------|
|5---0--00-00--0------0-0-0-0-0-0-4--0--00-00--0---0-0-0-0-0-0--|
|5---0--00-00--0------0-0-0-0-0-0-4--0--11-11--1---0-0-0-0-0-0--|
     *  ** **         * * * * * *    *  ** **      * * * * * *

Don't know this part
Guitar 2: (Rhythm)
|---------------------------------------------------------------|
|---------------------------------------------------------------|
|8-------------0------------------4-----------------------------|
|5---0--00-00--0------0-0-0-0-0-0-4--0--00-00--0---0-0-0-0-0-0--|
|5---0--00-00--0------0-0-0-0-0-0-4--0--11-11--1---0-0-0-0-0-0--|
     *  ** **         * * * * * *    *  ** **      * * * * * *

A Veeery Long Outro
Guitar 1: (Lead)               x4
|-------------------------------| |---------------|
|-------------------------------| |---------------|
|-------------------------------| |---------------|
|-------------------------------| |-----------0---|
|---000-000-000-----00000--000--| |-00000-----0---|
|---000-000-000-----00000--000--| |-00000-----0---|
    *** *** ***     *****  ***      *****

A Veeery Long Outro
Guitar 2: (Rhythm)             x4
|-------------------------------| |---------------|
|-------------------------------| |---------------|
|-------------------------------| |---------------|
|-------------------------------| |-----------0---|
|---000-000-000-----00000--000--| |-00000-----0---|
|---000-000-000-----00000--000--| |-00000-----0---|
    *** *** ***     *****  ***      *****

Guitar 3: (Extra Guitar)
|---------------------------------------------------------------------------------|
|---------------------------------------------------------------------------------|
|---------------------------------------------------------------------------------|
|7-8-7-4-5---8---7---4-4-----5-5-1------0-1--0---7-8-7-4--5---1------7-8-7-4-5----|
|x-x-x-x-x---x---x---x-x-----x-x-x-----------0---x-x-x-x--x---x------x-x-x-x-x----|
|7-8-7-4-5---8---7---4-4-----5-5-1------0-1--0---7-8-7-4--5---1------7-8-7-4-5----|

The Continuing Outro ...
Guitar 1: (Lead)                                  x2
|--------------------------------------------------|
|--------------------------------------------------|
|--------------------------------------------------|
|--------------------------------------------------|
|-0-0--0-0-0-0-0-0-0-0--0-0-0-0-0-0-0-0--0-0--0-0--|
|-0-0--0-0-0-0-0-0-0-0--0-0-0-0-0-0-0-0--0-0--0-0--|
  * *  * * * * * * * *  * * * * * * * *  * *  * *

The Continuing Outro ...
Guitar 2: (Rhythm)                                x2
|--------------------------------------------------|
|--------------------------------------------------|
|--------------------------------------------------|
|--------------------------------------------------|
|-0-0--0-0-0-0-0-0-0-0--0-0-0-0-0-0-0-0--0-0--0-0--|
|-0-0--0-0-0-0-0-0-0-0--0-0-0-0-0-0-0-0--0-0--0-0--|
  * *  * * * * * * * *  * * * * * * * *  * *  * *

Still Going ...
Guitar 1: (Lead)
|--------------------------------------------------|
|--------------------------------------------------|
|--------------------------------------------------|
|--------------------------------------------------|
|000-0-0-0-0-0-0000--0-0-0-0-0-0000-000-----12\----|
|000-0-0-0-0-0-0000--0-0-0-0-0-0000-000-----12\----|
 *** * * * * * ****  * * * * * **** ***

Still Going ...
Guitar 2: (Rhythm)
|--------------------------------------------------|
|--------------------------------------------------|
|--------------------------------------------------|
|--------------------------------------------------|
|000-0-0-0-0-0-0000--0-0-0-0-0-0000-000-----12\----|
|000-0-0-0-0-0-0000--0-0-0-0-0-0000-000-----12\----|
 *** * * * * * ****  * * * * * **** ***

And Again ...
Guitar 1: (Lead)
Let these strums ring after you strum them.
|--------------------------------------------------| |-----------|
|--------------------------------------------------| |-----------|
|--------------------------------------------------| |-----------|
|--------------------------------------------------| |-----------|
|-0-0--0-0-0-0-0-0-0-0--0-0-0-0-0-0-0-0--0-0--0-0--| |-000-000---|
|-0-0--0-0-0-0-0-0-0-0--0-0-0-0-0-0-0-0--0-0--0-0--| |-000-000---|
  * *  * * * * * * * *  * * * * * * * *  * *  * *      *** ***

OMFG End Already!
Guitar 1 & 2 (Together)
|-----------------------------------------------|
|-----------------------------------------------|
|-----------------------------------------------|
|-----------------------------------------------|
|000-0-0-0-0-0-0000--0-0-0-0-0-0000-000---------|
|000-0-0-0-0-0-0000--0-0-0-0-0-0000-000---------|
 *** * * * * * ****  * * * * * **** ***

Well thats the whole song. From 8:08pm to 10:41pm to finish but its finally done. Please 
and comment and let me know if there are any mistakes.





Comments


Popular Miss May I tabs & chords
Swing Bass Tabs
Architect Tabs
Architect 1 Tabs
Arms Of The Messiah Tabs
Colossal Tabs
Harlots Breath Tabs
In Recognition Tabs
Our Kings Tabs
Tides Tabs
In Recognition Ukulele


Song lyrics



↑ Back to top | Tablatures and chords are parodies/interpretations of the original songs. You may use it for private study, scholarship, research or language learning purposes only
© 2014 AZChords.com Contact us | Privacy policy | DMCA | Add/correct tabs | Request tabs | Top 50 tabs