» » »

Miss May I, A Dance With Aera Cura Bass tabs (ver.1)

Artists:  A B C D E F G H I J K L M N O P Q R S T U V W X Y Z # 

A Dance With Aera Cura Bass tabs (ver.1)

Miss May I Tabs
 Rating:
4/5 (4 votes)
A Dance With Aera Cura lessons Tabs too difficult? Try these video lessons and learn fast
1
                Artist - Miss May I
Song - A Dance With Aera Cura
Album - Apologies are for the Weak
Profile - horizonaflame

Hey this is a great song, and its suprising easy for bass, so please rate and comment on 
any ideas. Go Screamo Music!

Drop C - CGCF from low to high

Intro x2

F|-----------------------------------------|
C|-----------------------------------------|
G|-----------------------------------------|
C|-000-000-0-0-0-0-000-888-888-8-8-8-8-777-|

Verse 1 x2

F|-------|-------|-------|
C|-------|-------|-------|
G|-------|-------|-------|
C|-0-x32-|-8-x16-|-7-x16-|

Verse pt 2 x2

F|-------|-------|-------|
C|-------|-------|-------|
G|-------|-------|-------|
C|-8-x16-|-7-x16-|-0-x32-|

So take my, take my hand

F|-------------------------------------------------------|
C|-------------------------------------------------------|
G|-------------------------------------------------------|
C|-000-000-0-0-0-0-000-000-000---000-000-0-0-0-0-000-000-|

Prechorus thing

F|----------|--------------------|
C|----------|---------------7-10-|
G|----------|--------7-8-10------|
C|-8-8-0~---|-7-8-10-------------|

Chorus

F|-------------------|-------------|----------|-------------|
C|-------------------|-------------|----------|-------------|
G|-------------------|-------------|----------|-------8-7-4-|
C|-8-x16-7-x16-0-x32-|-8-x16-7-x16-|-8-0~-----|-000-0-------|

Post chorus x2

F|-------------------|
C|-------------------|
G|-------------------|
C|-8-x16-7-x16-0-x32-|

post-chorus cont. x2

F|-------------------|
C|-------------------|
G|-------------------|
C|-0-x32-8-x16-5-x16-|

"she rises up, from the shallows" bit here x 4

F|---------------------------|
C|---------------------------|
G|---------------------------|
C|-000x---000x000x000x---000-|

Breakdown part x2

F|-----------------------|
C|-----------------------|
G|-----------------------|
C|-5~-0x0x0~--4~-0x0x0~--|

Breakdown part 2 x 4

F|----------------------------|
C|----------------------------|
G|----------------------------|
C|-000x000x000x---00000x-000x-|

this part 1 time only

F|------------------|
C|------------------|
G|------------------|
C|-00000x----0~~~---|

Outro = played till song is over

F|---------------------------|
C|---------------------------|
G|---------------------------|
C|-00x0000000-0000000-00x00x-|

there it is, im also uploading the new album for bass (well, most of the new album) so 
tell me what you think, please rate and comment.
            
Submit corrections

comments powered by Disqus
↑ Back to top | Miss May I Bass for A Dance With Aera Cura. Lyrics for acoustic guitar and electric guitar. 1 Tablatures and chords are parodies/interpretations of the original songs. You may use it for private study, scholarship, research or language learning purposes only