» » »

Mission, Misc Songs Tabs (ver.2)

Artists:  A B C D E F G H I J K L M N O P Q R S T U V W X Y Z # 

Misc Songs Tabs (ver.2)

Mission Tabs
4/5 (4 votes)
Misc Songs lessons Tabs too difficult? Try these video lessons and learn fast
                Here are a few Mission intros/riffs.
Comments, corrections etc. welcome.

Blood Brother:

1st guitar

e -------2-0-----------2-0-----------2-0-----------0------
B -0-0-0-----0-0---0-------0-----0-------0-----3-----3----
G ---------------2---2-------2-1---1-------1-2---2-----2--
D --------------------------------------------------------
A --------------------------------------------------------
E --------------------------------------------------------

2nd guitar

e ------------7-------------------------*----------------7--
B -7-9/10/9-7---7-9/10/9-7---7-9/10/9-7---7-9/10/9-7---7----
G -------------------------9-------------------------9------
D ----------------------------------------------------------
A ----------------------------------------------------------
E ----------------------------------------------------------

("*" means "7" the first time played, and "12" the second.)

Naked and Savage:

e -----0-1-----0-1-----3-1-0---0----
B ---3-------3-------1-------1---3--
G ----------------------------------
D -0-------3------------------------
A -----------------0----------------
E ----------------------------------

Serpent's Kiss:

e -----5-3---5-3-5-3------3-3---3-3----------
B ---3-----3------------3-----3-----6-5/6/5--
G -5------------------0----------------------
D -------------------------------------------
A -------------------------------------------
E -------------------------------------------

Like a hurricane:
(Somewhat simplified)

e -7---7-------7-----7--5---5-------5-----5--
B ---5---5---5-----5------3---3---3-----3----
G ---------4-----4--------------2-----2------
D -------------------------------------------
A -------------------------------------------
E -------------------------------------------

e -3---3-------3-----3--2---2-----5-5---5----
B ---1---1---1-----1------0---0-0-----3---3--
G ---------0-----0---------------------------
D -------------------------------------------
A -------------------------------------------
E -------------------------------------------

Dancing Barefoot:


 G            A             
  I'm dancing barefoot,

  C             D
  Heading for a spin

  Em                 A
  Some strange music drags me in,

  C                D
  Makes me come on like some heroine

(The rest of the song is just  Em  A  Em  A etc...)
Submit corrections

comments powered by Disqus
↑ Back to top | Mission Tabs for Misc Songs. Lyrics for acoustic guitar and electric guitar. Tablatures and chords are parodies/interpretations of the original songs. You may use it for private study, scholarship, research or language learning purposes only