>
 >
Sine-sine

Sine-sine Guitar Tabs

Missing Felimon - Sine-sine chords, tabs, tablatures, lyrics

Guitar lessons | Add/correct | Request | Top 50 tabs Artists:  A B C D E F G H I J K L M N O P Q R S T U V W X Y Z 0-9

Sine-sine Guitar Tabs – Missing Felimon

CD, Sheet music, Poster

Do you like Sine-sine? Share with your friends now
Tabs
Band/Artist:Missing Felimon

Intro:D-B7-E

e|-2-2-2-2-2-2-2-2--2-2-2-2-2-2-2-2------------------------|
B|-3-3-3-3-3-3-3-3--0-0-0-0-0-0-0-0------------------------|
G|-2-2-2-2-2-2-2-2--2-2-2-2-2-2-2-2------------------------|
D|-0-0-0-0-0-0-0-0--1-1-1-1-1-1-1-1------------------------|
A|------------------2-2-2-2-2-2-2-2-------------2--4--5--7-|
E|-----------------------------------0--2--4--5------------|

Verse1:

A       C#7            F#m
Sinesine wala tay laing lingaw
E
Kandila luyo sa habol
D                Dm
Katawang binayran og pisong kinawat
A              E
Sa gubaong pitakang lola
A        C#7
Anino sa mga artistang papel
E
Gihinganlan tag si Pedro’g
D                 Dm
SabelSila’ng bida niadtong estorya
A                E
Sa gugma nga way katumanan


Chorus:
A         C#7         F#m
Sine..sinesine sa bata pa
E                 D
Di na unta matapos pa
 C#m   / F#m   /  Bm         E
Bisan pa man sa pagdagan sa panahon
A         C#7         F#m
Lantawon mga eksena nga molabay
E                  D
Tanang tawo makasakay
C#m   / F#m   /  Bm         E
Saksihan ta ang pagdagan sa panahon
Repeat Intro: D-B7-E
panahon..


Verse2:
A       C#7            F#m
Sigesigeha lang imong paglakaw
E
Ay’g kahadlok may kahayag
D                Dm
Modan-ag sa dalang mangitngit
A                      E
Lakip na ang langit daw lapad nga adlaw
A       C#7            F#m
Ang kinabuhi sugilanong hiwi
E
Kalipay kasakit ug kalami
D                Dm
Silang bida niining salida
A                      E
Sa gugma nga way katumanan


Repeat Chorus

Addlib: A-C#7-F#m-E-D-Dm-A-E
Guitar Solo:
e|------------------------------------------------------------------|
B|---9b--8b--8--9--11--9--8--9b---9/7b--7b--6--9--7--6b-------------|
G|------------------------------------------------------------------|
D|------------------------------------------------------------------|
A|------------------------------------------------------------------|
E|------------------------------------------------------------------|

e|-----------7/9--7--5-------7/9--7--5b--5/9--9---12b--12------12---|
B|-----5-----------------5-----------------------------------10--12b|
G|---6---6-------------6---6----------------------------------------|
D|------------------------------------------------------------------|
A|------------------------------------------------------------------|
E|------------------------------------------------------------------|

(Repeat Chorus)





Comments


Popular Missing Felimon tabs & chords
Alas Kwatro Chords
Inday Chords
Inday 1 Chords
Langit Chords
Suroy-suroy Chords
Englisera Tabs
Kung Ako Ka Pa Lang Tabs
Alas Kwatro Ukulele
Langit Ukulele
Prinsipal Ukulele


Song lyrics



↑ Back to top | Tablatures and chords are parodies/interpretations of the original songs. You may use it for private study, scholarship, research or language learning purposes only
© 2014 AZChords.com Contact us | Privacy policy | DMCA | Add/correct tabs | Request tabs | Top 50 tabs