» » »

Missing Felimon, Englisera Tabs (ver.1)

Artists:  A B C D E F G H I J K L M N O P Q R S T U V W X Y Z # 

Englisera Tabs (ver.1)

Missing Felimon Tabs
 Rating:
4/5 (4 votes)
Englisera lessons Tabs too difficult? Try these video lessons and learn fast
1
                Missing Felimon


INTRO:
       G           Bm          C           D
G|-----------|-----------|-----------|-----------|
D|--------3--|------4----|------5----|------7----|
A|------5----|--2-2---2--|--3-3---3--|--5-5---5--| 3x
E|--3-3------|-----------|-----------|-----------|

VERSE1:
       G           Bm          C           D
G|-----------|-----------|-----------|-----------|
D|--------3--|------4----|------5----|------7----|
A|------5----|--2-2---2--|--3-3---3--|--5-5---5--| 3x
E|--3-3------|-----------|-----------|-----------|
Aduna koy nabantayan,nausab na ang akong sinultian,may sagol nang inegles
like 'whatever' and 'well'...

      Em          D          C
G|----------|----------|----------|
D|----------|----------|----------|
A|----7-----|----5-----|----3-----|
E|----------|----------|----------|
Sukad nga nakaila tika....

REFRAIN1:
      G           Bm          C           D
G|-----------|-----------|-----------|-----------|
D|--------3--|------4----|------5----|------7----|
A|------5----|--2-2---2--|--3-3---3--|--5-5---5--| 2x
E|--3-3------|-----------|-----------|-----------|
Giingnan ko sa imong friends,nga you find kuno baduy,ang bisayang pinulongan,
manlimbawot imong balhibo,kung makadungog nag...
      Em          D          C
G|----------|----------|----------|
D|----------|----------|----------|
A|----7-----|----5-----|----3-----|
E|----------|----------|----------|
Pulong sama sa gugma.....

CHORUS1:
      G           Bm          C           D
G|-----------|-----------|-----------|-----------|
D|--------3--|------4----|------5----|------7----|
A|------5----|--2-2---2--|--3-3---3--|--5-5---5--| 3x
E|--3-3------|-----------|-----------|-----------|
So I say i love you,Is it okey with you,Bahala nag makahilak
Ang lolo kong magbabalak,I'll tell him 'well my lolo I'm in love not like you..
      Em          D          C
G|----------|----------|----------|
D|----------|----------|----------|
A|----7-----|----5-----|----3-----|
E|----------|----------|----------|
I'm not too old to learn an english word or two...

[repeat intro]

VERSE2:
      G           Bm          C           D
G|-----------|-----------|-----------|-----------|
D|--------3--|------4----|------5----|------7----|
A|------5----|--2-2---2--|--3-3---3--|--5-5---5--| 3x
E|--3-3------|-----------|-----------|-----------|
Nagkuyog ta sa sinehan,gikataw-an mo ang trailer ni Piolo ug judy ann
way laing naingon kundi 'whatever' and 'well'...
      Em          D          C
G|----------|----------|----------|
D|----------|----------|----------|
A|----7-----|----5-----|----3-----|
E|----------|----------|----------|
Dayong gawas sa pultahan...

REFRAIN2:
      G           Bm          C           D
G|-----------|-----------|-----------|-----------|
D|--------3--|------4----|------5----|------7----|
A|------5----|--2-2---2--|--3-3---3--|--5-5---5--| 3x
E|--3-3------|-----------|-----------|-----------|
Giingnan ko sa imong friends,nga you find kuno baduy,mga pelikulang pinoy
bahala nag luod basta gikan sa hollywood
     Em          D          C
G|----------|----------|----------|
D|----------|----------|----------|
A|----7-----|----5-----|----3-----|
E|----------|----------|----------|
Always makes you feel so good

repeat CHORUS1:


BRIDGE:
Unya kalit kang nawala
Wa ka nagpahibalo
Niining bisdak nga na-in love kanimo
I thought kitang duha together forever...

     Em          D          C
G|----------|----------|----------|
D|----------|----------|----------|
A|----7-----|----5-----|----3-----|
E|----------|----------|----------|
Ako imo diayng gipasakitan....

REFRAIN3:
     G           Bm          C           D
G|-----------|-----------|-----------|-----------|
D|--------3--|------4----|------5----|------7----|
A|------5----|--2-2---2--|--3-3---3--|--5-5---5--| 3x
E|--3-3------|-----------|-----------|-----------|
Giingnan ko sa imong friends,nga nikuyog ka kuno sa imong ka-textmate na kano
nanlimbawot akong balahibo sa nasayran ko nga...
     Em          D          C
G|----------|----------|----------|
D|----------|----------|----------|
A|----7-----|----5-----|----3-----|
E|----------|----------|----------|
Ang kano otsenta na...

CHORUS2:
     G           Bm          C           D
G|-----------|-----------|-----------|-----------|
D|--------3--|------4----|------5----|------7----|
A|------5----|--2-2---2--|--3-3---3--|--5-5---5--| 3x
E|--3-3------|-----------|-----------|-----------|
Still I say I love you though youre hurting me so,Bahala nag makahilak ang lolo kung 
tell him well my lolo i'm your stupid apo
     Em          D          C
G|----------|----------|----------|
D|----------|----------|----------|
A|----7-----|----5-----|----3-----|
E|----------|----------|----------|
Naminaw lang unta ako sa tambag mo...
     Em          D          C
G|----------|----------|----------|
D|----------|----------|----------|
A|----7-----|----5-----|----3-----|
E|----------|----------|----------|
Now I'm too hurt to learn an english word or two....


Pls rate ani f sakto ba ni....
            
Submit corrections

comments powered by Disqus
↑ Back to top | Missing Felimon Tabs for Englisera. Lyrics for acoustic guitar and electric guitar. 1 Tablatures and chords are parodies/interpretations of the original songs. You may use it for private study, scholarship, research or language learning purposes only