>
 >
Gunpowder And Lead Intro

Gunpowder And Lead Intro Guitar Tabs

Miranda Lambert - Gunpowder And Lead Intro chords, tabs, tablatures, lyrics

Guitar lessons | Add/correct | Request | Top 50 tabs Artists:  A B C D E F G H I J K L M N O P Q R S T U V W X Y Z 0-9

Gunpowder And Lead Intro Guitar Tabs – Miranda Lambert

CD, Sheet music, Poster

Do you like Gunpowder And Lead Intro? Share with your friends now
Tabs
                    gun powder and lead                             
                         
                    Miranda Lambert
                        
                    tab by gocosfs

Guitar
     S S E  S S  S E  E  S S  S E     S S E.  S S S S  S S E  E  S  
E||--------------------------------|-------------------------------|
B||--------------------------------|-------------------------------|
G||------0---------0--0----3b---0--|----------0-----3p-0---0-----0-|
D||-----------0h-3-------3---------|------3-------3-----------3----|
A||--------------------------------|-------------------------------|
E||--3------3----------------------|--3---------3--------3---------|


  E  S  S S S S S S S E.   E  S    S S E.   E  S S  S S  S S  E.   
--------------------------------|---------------------------------|
----------------------3---------|---------------------------------|
------------0-----3---3b---0--0-|------3b---0---------------------|
-----0h-2-------2---------------|----0---------0-3p-0-3p-0--------|
--------------------------------|--------------------------1b-----|
--3-------3---3-----------------|-----------------------------3---|
  


  S S E  S S  S E  E  S S  S E     T E  E.  T E.  S  S S E  E   
--------------------------------|------------------------------|
--------------------------------|-----------------0h-1---------|
------0---------0--0----3b---0--|-------------0----------0-----|
-----------0h-3-------3---------|-------3--------------3----3--|
--------------------------------|------------------------------|
--3------3----------------------|----3------3------------------|


  S E  S  S. E  S E   S E  E  T    E.  E.   E  S  S S S S E   S  
--------------------------------|-------------------------------|
--------------------------------|-------------------------------|
--0----------0----3b----0-----0-|------3b---0-------0-----------|
-------0h-2-----2----------2----|--------------0h-3---3-0-------|
--------------------------------|-------------------------1b----|
----3-----------------3---------|-----------------------------3-|


  S S S E  S S  S E  E  S S. X S X    T. E  E.  E  S S  S S E  E  X  
-----------------------------------|--------------------------------|
-----------------------------------|--------------------------------|
--------0---------0--0----3b---0---|------------0----3p-0---0-----0-|
-------------0h-3-------3----------|--------3------3------3----3----|
-----------------------------------|--------------------------------|
----3------3-----------------------|-----3--------------------------|


  S E  S  E  E  S E.   E  S S    S E  E  S S E  S  S S E  S S    S  
------------------------------|-------------------------------|----||
------------------------------|-------------------------------|----||
-------------0----3b---0--0---|--0---------0----3p-0---0--0---|--0-||
-------0h-2-----0-----------2-|-------0------0-------0------3-|----||
------------------------------|-------------------------------|----||
----3-------------------------|----3-----3--------------------|----||



  
strum - G - F - C chords for chorus 

 
Duration Legend
---------------
W - whole
H - half
Q - quarter
E - 8th
S - 16th
T - 32nd
X - 64th
. - note dotted
|-n-|  - n-tuplets


Tablature Legend
----------------
p - pull off
b - bend





Comments


Popular Miranda Lambert tabs & chords
Desperation 1 Chords
I Can't Be Bothered Chords
Kerosene Chords
Look At Miss Ohio 1 Chords
Only Prettier Chords
The House That Built Me 2 Chords
The Way I Am Cover Chords
Virginia Bluebell 1 Chords
Love Song Ukulele
What About Georgia Ukulele


Song lyrics



↑ Back to top | Tablatures and chords are parodies/interpretations of the original songs. You may use it for private study, scholarship, research or language learning purposes only
© 2014 AZChords.com Contact us | Privacy policy | DMCA | Add/correct tabs | Request tabs | Top 50 tabs