» » »

Miranda Lambert, Bring Me Down Tabs (ver.1)

Artists:  A B C D E F G H I J K L M N O P Q R S T U V W X Y Z # 

Bring Me Down Tabs (ver.1)

Miranda Lambert Tabs
 Rating:
4/5 (4 votes)
Bring Me Down lessons Tabs too difficult? Try these video lessons and learn fast
                
I think this tab is pretty much what she does, but use this to do whatever sounds like it to you.
INTRO:
Capo 2nd Fret
	Dm
E-----0h1--0-------------------------------------------
B-----3----3-3--3--------------------------------------
G-----2------2----2--2---------------------------------
D--0--------------0------------------------------------
A--------------------0---------------------------------
E------------------------------------------------------
	C9
E------------------------------------------------------
B-------------3-3---3----------------------------------
G-------------0-0---0---3------------------------------
D--------0h2----2-----2--------------------------------
A------3-----------------------------------------------
E------------------------------------------------------
	Dm			    C9
E-----0h1--0-------------------------------------------
B-----3----3-3--3------------------------3-------------
G-----2------2----2--2--------0----0-----0-------------
D--0--------------0----------0----2------2-------------
A--------------------0----0h2--0h3---------------------
E------------------------------------------------------
            
Submit corrections

comments powered by Disqus
↑ Back to top | Miranda Lambert Tabs for Bring Me Down. Lyrics for acoustic guitar and electric guitar. Tablatures and chords are parodies/interpretations of the original songs. You may use it for private study, scholarship, research or language learning purposes only