» » »

Ministry, Relapse Tabs (ver.1)

Artists:  A B C D E F G H I J K L M N O P Q R S T U V W X Y Z # 

Relapse Tabs (ver.1)

Ministry Tabs
 Rating:
4/5 (4 votes)
Relapse lessons Tabs too difficult? Try these video lessons and learn fast
                -------------------------------------------------------------------------------
-------------------------------------------------------------------------------


Tuning:DADGBE


Intro/Verse Riff:
|---------------------                  |---------------|
|---------------------                  |---------------|
|---------------------       x3         |---------------|
|-3-------------------           then   |---------6/5---|
|-3-0-0-0-0-0-0-0-0---                  |-5/4-6/5-4/3---|
|-3-0-0-0-0-0-0-0-0---                  |-5/4-6/5-------|




I Relapse, you laugh...

|-----------------------------------------------------------------
|-----------------------------------------------------------------
|-5-------3-------------------------------------------------------
|-3-------1---------------------------------------------------6/5-
|-3-------1-----3-0-0-0-0-3-0-3-0-0-0-0-3-0-3-0-0-0-0-5/4-4/3-4/3-
|-3-------1-----3-0-0-0-0-3-0-3-0-0-0-0-3-0-3-0-0-0-0-5/4-4/3-----
                  . . . .   .   . . . .   .   . . . .
 
I Relaaapse, you laugh
|-----------------------------------------------------------------
|-----------------------------------------------------------------
|-5-------3-----7-----3-------------------------------------------
|-3-------1-----5-----1----------------3--------------------------
|-3-------1-----5-----1----3-0-0-3-0-0-3--------------------------
|-3-------1-----5-----1----3-0-0-3-0-0-3--------------------------
                             . . . . . 


-Verse 2 Riff:-
|---------------------                  |---------------|
|---------------------                  |---------------|
|---------------------       x3         |---------------|
|-3-------------------           then   |---------6/5---|
|-3-0-0-0-0-0-0-0-0---                  |-5/4-6/5-4/3---|
|-3-0-0-0-0-0-0-0-0---                  |-5/4-6/5-------|






SOLO (added later)



-Verse 3 Riff:-
|---------------------                  |---------------|
|---------------------                  |---------------|
|---------------------       x3         |---------------|
|-3-------------------           then   |---------6/5---|
|-3-0-0-0-0-0-0-0-0---                  |-5/4-6/5-4/3---|
|-3-0-0-0-0-0-0-0-0---                  |-5/4-6/5-------|



-Final Chorus-

I Relapse, you laugh...

|-----------------------------------------------------------------|
|-----------------------------------------------------------------|
|-5-------3-------------------------------------------------------|
|-3-------1---------------------------------------------------6/5-|
|-3-------1-----3-0-0-0-0-3-0-3-0-0-0-0-3-0-3-0-0-0-0-5/4-4/3-4/3-|
|-3-------1-----3-0-0-0-0-3-0-3-0-0-0-0-3-0-3-0-0-0-0-5/4-4/3-----|
                  . . . .   .   . . . .   .   . . . .
 
I Relaaapse, you laugh...
|-----------------------------------------------------------------|
|-----------------------------------------------------------------|
|-5-------3-----7-----3-------------------------------------------|
|-3-------1-----5-----1----------------3--------------------------|
|-3-------1-----5-----1----3-0-0-3-0-0-3--------------------------|
|-3-------1-----5-----1----3-0-0-3-0-0-3--------------------------|
            
Submit corrections

comments powered by Disqus
↑ Back to top | Ministry Tabs for Relapse. Lyrics for acoustic guitar and electric guitar. Tablatures and chords are parodies/interpretations of the original songs. You may use it for private study, scholarship, research or language learning purposes only