» » »

Just One Fix Tabs (ver.1)

Artists:  A B C D E F G H I J K L M N O P Q R S T U V W X Y Z # 

Just One Fix Tabs (ver.1)

Ministry
Rating:
4/5 (4 votes)
Tabs too difficult? Try these video lessons and learn fast.
                
 For all eight notes use downstroke picking, on sixteen notes
 use alternative picking (only in intro start upstroke).


  Intro

   1   +   2   +   3   +   4   +
E|---------------------------------|
B|---------------------------------|
G|---------------------------------|
D|-7-8-----7-8-----7-8-----7-8-----|
A|-7-8-----7-8-----7-8-----7-8-----|
E|-5-6-----5-6-----5-6-----5-6-----|


  Main Riff

   1   +   2   +   3   +   4   +     1   +   2   +   3   +   4   +
E|---------------------------------|---------------------------------|
B|---------------------------------|---------------------------------|
G|---------------------------------|---------------------------------|
D|-5-----------2-------------------|-7---5-------8-------------------|
A|-5-----------2-------------------|-7---5-------8-------------------|
E|-3---0---0---0---0---0-0-0-0-0-0-|-5---3---0---6---0---0-0-0-0-0-0-|


  00:36 (gtr II)

   1   +   2   +   3   +   4   +     1   +   2   +   3   +   4   +   
E|---------------------------------|---------------------------------|
B|---------------------------------|---------------------------------|
G|-4-----------3-------------------|-9-----------8-------------------| x3
D|---------------------------------|---------------------------------|
A|---------------------------------|---------------------------------|
E|---------------------------------|---------------------------------|

   1   +   2   +   3   +   4   +
E|---------------------------------|
B|---------------------------------|
G|-9-------------------------------|
D|---------------------------------|
A|---------------------------------|
E|---------------------------------|


  02:31

   1   +   2   +   3   +   4   +     1   +   2   +   3   +   4   +
E|---------------------------------|---------------------------------|
B|---------------------------------|---------------------------------|
G|---------------------------------|---------------------------------|
D|-5-----------2-------------------|-----7---5-------8---------------|
A|-5-----------2-------------------|-----7---5-------8---------------|
E|-3---0---0---0---0---0---0---0---|-0---5---3---0---6---0---0---0---|


  03:00 (for the 4th time play just the 1st bar, then intro)

   1   +   2   +   3   +   4   +     1   +   2   +   3   +   4   +   
E|---------------------------------|---------------------------------|
B|---------------------------------|---------------------------------|
G|---------------------------------|---------------------------------|
D|-5-----------5-----------5-------|-----4-----------5-------4-------|
A|-5-----------5-----------5-------|-----4-----------5-------4-------|
E|-3---0---0---3---0---0---3---0---|-0---2---0---0---3---0---2---0---|
 |
 | Gtr II
 |  
E|-12----------12----------12------|-----12----------12------12------|
B|-15b17-------15b17-------15b17---|-----15b17-------15b17---15b17---|
G|---------------------------------|---------------------------------|
D|---------------------------------|---------------------------------|
A|---------------------------------|---------------------------------|
E|---------------------------------|---------------------------------|

  
 03:14

   1   +   2   +   3   +   4   +     1   +   2   +   3   +   4   +   
E|---------------------------------|---------------------------------|
B|---------------------------------|---------------------------------|
G|---------------------------------|---------------------------------|
D|-5-----------2-------------------|-7---5-------8-------------------|
A|-5-----------2-------------------|-7---5-------8-------------------|
E|-3---0-0-0-0-0---0-0-0-0-0-0-0-0-|-5---3---0-0-6---0-0-0-0-0-0-0-0-|


 03:54 (Gtr II)
  
   1   +   2   +   3   +   4   +     1   +   2   +   3   +   4   +   
E|---------------------------------|---------------------------------|
B|---------------------------------|---------------------------------|
G|-----------------9-----------8---|---------7-----------------------|
D|---------7---9-----------9-------|-----9-----------8---7-----------|
A|-9---10--------------------------|-------------------------10--7---|
E|---------------------------------|---------------------------------|
            
Tabs too difficult? Try these video lessons and learn fast.


comments powered by Disqus
↑ Back to top | Tablatures and chords are parodies/interpretations of the original songs. You may use it for private study, scholarship, research or language learning purposes only