>
 >
Dont Think Twice

Dont Think Twice Guitar Tabs

Mike Ness - Dont Think Twice chords, tabs, tablatures, lyrics

Guitar lessons | Add/correct | Request | Top 50 tabs Artists:  A B C D E F G H I J K L M N O P Q R S T U V W X Y Z 0-9

Dont Think Twice Guitar Tabs – Mike Ness

CD, Sheet music, Poster

Do you like Dont Think Twice? Share with your friends now
TabsUkulele
Donít Think Twice - Mike Ness

Standard tuning. Key of G

E-----------------------------------------------------------------------|
A----------------------------------------------------3------------------|
D--0--2---------------------------------------2----------2---5----2-----|
G--------0----2--------2-------2--------2--0----------------------------|
B-----------------------------------------------------------------------|
e-----------------0--------0-------0------------------------------------|


E-----------------------------------------------------------------------|
A--------------------------------------3-3-------------3-3--------------|
D---4--------------------------------------2-2-5-5-2-2-----2-2-5-5-2-2--|
G------2------------------5--4--2--0------------------------------------|
B--------3---8--7--5--3---5--3--1--0------------------------------------|
e------------7--5--3--2-------------------------------------------------|

E-----------------------------------------------------------------------|
A-----------------------------------------------------------------------|
D---4-4-----------------------------------------------------------------|
G-------2-2-5-5-2-2--7---7----------------------------------------------|
B---------------------------8--10--10---------12--10---9/12--12---------|
e---------------------------------------12-10---------------------------|

E-----------------------------------------------------------------------|
A-----------------------------------------------------------------------|
D----------------------------------------10------------------10---------|
G-------------------12-----7--9---9-7-------7--9-----9--7---------------|
B---10--12-12-12-10-------------8-----------------8---------------------|
e-----------------------------------------------------------------------|

E--------------------------------------------3--3-----------------------|
A ------------------------5----5---3--3-5-5-----2-----------------------|
D ----4-5-5-4---4--2---2------------------------0-----------------------|
G ----------------------------------------------0-----------------------|
B-----------------------------------------------3-----------------------|
e ----------------------------------------------3-----------------------|

I originally did this so I could add the solo of Mike Ness' version into Johnny Cash's 
 Ness did this song in the key of G and Cash did it in the key of C.  So, if you want it, 
did it.

Key of C

E-----------------------------------------------------------------------|
A---------------------------------------------------8-------------------|
D--5--7------------------------------------7---5------7--10---7---------|
G--------5-----7------7-----7-----7----5--------------------------------|
B-----------------------------------------------------------------------|
e------------------5-----5-----5----------------------------------------|

E-----------------------------------------------------------------------|
A------------------------------------------8-8-----------------8-8------|
D--9-------------------------------------------7-7--10-10--7-7-----7-7--|
G-----7-----------------------10--9--7--5-------------------------------|
B--------8---13--12---10---8--10--8--6--5-------------------------------|
e------------12--10---8----7--------------------------------------------|

E-----------------------------------------------------------------------|
A-----------------------------------------------------------------------|
D--10-10-7-7--9-9----------------------5--------------------------------|
G-----------------7-7---10-10--7-7-------5--7-7---------9--7------------|
B-----------------------------------8------------10--8------------------|
e-----------------------------------------------------------------------|

E-----------------------------------------------------------------------|
A-----------------------------------------------------------------------|
D-----------------------------------------------------------------------|
G---6/9--9----7--9-9-9-7-------------------------9-------------------9--|
B------------------------------8---10-----10--8-----8--10-----10--8-----|
e--------------------------------------8-------------------8------------|

E-----------------------------------------------------------------------|
A----------------------------------------------3------------------------|
D---------------------------5--5--3--3--5--5---2------------------------|
G----4-5---5--4---4--2---2---------------------0------------------------|
B----------------------------------------------1------------------------|
e----------------------------------------------0------------------------|





Comments


Popular Mike Ness tabs & chords
If You Leave Before Me Chords
Im In Love With My Car Chords
Once A Day Chords
Six More Miles Chords
The Devil In Miss Jones Chords
Ballad Of A Lonely Man Tabs
Dont Think Twice Ukulele
If You Leave Before Me Ukulele
Rest Of Our Lives Ukulele
The Devil In Miss Jones Ukulele


Song lyrics



↑ Back to top | Tablatures and chords are parodies/interpretations of the original songs. You may use it for private study, scholarship, research or language learning purposes only
© 2014 AZChords.com Contact us | Privacy policy | DMCA | Add/correct tabs | Request tabs | Top 50 tabs