» » »

Mika, Relax Take It Easy Chords (ver.1)

Artists:  A B C D E F G H I J K L M N O P Q R S T U V W X Y Z # 

Relax Take It Easy Chords (ver.1)

Mika Tabs
 Rating:
4/5 (4 votes)
Relax Take It Easy lessons Tabs too difficult? Try these video lessons and learn fast
1
                 Mika-Relax (take it easy)

 F#m   [244222]
 Bm    [X24432]  
 E     [022100]
 C#m   [X46654]



-Intro

     F#m                                Bm                              
           
E||---9---9---9---9---9---9---9---9--|--10--10--10---9---9---9---9---9--|
B||--10----------10----------10------|--12----------12------12--12------|
G||--11--11--11--11--11--11--11--11--|--11--11--11--11--11--11--11--11--|
D||----------------------------------|----------------------------------|
A||----------------------------------|----------------------------------|
E||----------------------------------|----------------------------------|


  E                           C#m                            
  
 --7--7--7--7--7--7--7--7--|---------------------------------|
 --9--------9--------9-----|--14------14------12------12-----|
 --9--9--9--9--9--9--9--9--|--13------13------13------13-----|
 --------------------------|--14--14--14--14--14--14--14-----|
 --------------------------|---------------------------------|
 --------------------------|---------------------------------|


-Verse

 F#m-D-Bm-E   (2X)


-Pré Chorus

 Bm-E-F#m

 Bm-E


-Chorus

 F#m-Bm-E-C#m 

 F#m-Bm-E-A/Ab


-Post Chorus

 F#m-Bm-E-C#m (4x)
            
Submit corrections

comments powered by Disqus
↑ Back to top | Mika Chords for Relax Take It Easy. Lyrics for acoustic guitar and electric guitar. 1 Tablatures and chords are parodies/interpretations of the original songs. You may use it for private study, scholarship, research or language learning purposes only