» » »

Mika, Love In The Bad Weather Tabs (ver.1)

Artists:  A B C D E F G H I J K L M N O P Q R S T U V W X Y Z # 

Love In The Bad Weather Tabs (ver.1)

Mika Tabs
 Rating:
4/5 (4 votes)
Love In The Bad Weather lessons Tabs too difficult? Try these video lessons and learn fast
1
                Hello, this is my first tab and I love this french song by MIKA!
So I grabbed my guitar and started to play along the melodies, and this is what I came 
up with! So please leave any comment and feedback, cause I'm willing to improve this 
version further with your help. Thank you!




---Capo 3----

Intro:
|-----------------------------------------------------------------|
|-----0--3--0---0-----0--5--0---0-----0--7--0---0------0--5--0---0|
|-------------0---------------0---------------0----------------0--|
|-----------------------------------------------------------------|
|-----------------------------------------------------------------|
|--3---------------3---------------3---------------3--------------|


|-----------------------------------------------------------------|
|-----0--3--0---0-----0--5--0---0-----0--7--0---0------0--8--0---0|
|-------------0---------------0---------------0----------------0--|
|-----------------------------------------------------------------|
|---3---------------3---------------5---------------5-------------|
|-----------------------------------------------------------------|


this part is repeated throughout the song except for the bridge before the chorus.


bridge:


guitar 1(two times slower)
|-------------------------------------------------------------------|
|----1-----0------------------------0-------------------------------|
|-----------------2-----0------------------2-----1------------------|
|---------0-----0-----0------00----------0-----0-----0-4------------|
|-------------------------------------------------------------------|
|-------------------------------------------------------------------|



guitar 2
|-----------------------------------------------------------------|
|-----0--3--0---0-----0--5--0---0-----0--7--0---0------0--5--0---0|
|-------------0---------------0---------------0----------------0--|
|-----------------------------------------------------------------|
|---3---------------3---------------3---------------3-------------|
|-----------------------------------------------------------------|

|-----------------------------------------------------------------|
|-----0--3--0---0-----0--5--0---0-----0--7--0---0------0--8--0---0|
|-------------0---------------0---------------0----------------0--|
|-----------------------------------------------------------------|
|---5---------------5---------------5---------------5-------------|
|-----------------------------------------------------------------|
            
Submit corrections

comments powered by Disqus
↑ Back to top | Mika Tabs for Love In The Bad Weather. Lyrics for acoustic guitar and electric guitar. 1 Tablatures and chords are parodies/interpretations of the original songs. You may use it for private study, scholarship, research or language learning purposes only