» » »

Sweet Emotion Tabs (ver.1)

Artists:  A B C D E F G H I J K L M N O P Q R S T U V W X Y Z # 

Sweet Emotion Tabs (ver.1)

Mighty Mighty Bosstones
Rating:
0/5 (0 votes)

Hard to play? Try these video lessons and learn fast.
                

-----------------------|------------------------------------------------------|
-----------------------|------------------------------------------------------|
-----------------------|-------------------2----------------------------------|
-----------------------|-------------------2----------------------------------|
----------------5---4--|---------------5---0----------------------------------|
-5-5-3h5-55-5-5---5----|-5-5-3h5-55-55---5------------------------------------|
 INTRO 10x              1x

------------------------------------------------------------------------------|
------------------------------------------------------------------------------|
-7--------------------7-------------------7--------------------7--------------|
-7-7-7-7-7-7---5/6/7--7-7-7-7-7-7---5/6/7-7-7-7-7-7-7---5/6/7--7-7-7-7-7-7----|
-5-7-7-7-7-7---5/6/7--5-7-7-7-7-7---5/6/7-5-7-7-7-7-7---5/6/7--5-7-7-7-7-7----|
---5-5-5-5-5-0h3/4/5----5-5-5-5-5-0h3/4/5---5-5-5-5-5-0h3/4/5----5-5-5-5-5----|
 VERSE RIFF

------------------------------------------------------------------------------|
------------------------------------------------------------------------------|
------------------------------------------------------------------------------|
---5/6/7-------2-3-4-5-6-------2-3-4-5-6-------2-3-4-5-6-------2-3-4-5-6------|
---5/6/7-5p4p0-2-3-4-5-6-5p4p0-2-3-4-5-6-5p4p0-2-3-4-5-6-5p4p0-2-3-4-5-6------|
-0h3/4/5-------0-1-2-3-4-------0-1-2-3-4-------0-1-2-3-4-------0-1-2-3-4------|


------------------------------------------------------------------------------|
------------------------------------------------------------------------------|
------------------------------------------------------------------------------|
------------------------------------------------------------------------------|
------------5-4------------5-4------------5-4-44-5-7-77-5---------------------|
-5-5-3-55-5-----5-5-3-55-5-----5-5-3-55-5-------------------------------------|
 CHORUS 2 x (palm muted)
            
Hard to play? Try these video lessons and learn fast. | Correct




comments powered by Disqus
↑ Back to top | Tablatures and chords are parodies/interpretations of the original songs. You may use it for private study, scholarship, research or language learning purposes only