» » »

Mighty Mighty Bosstones, Sugar Free Tabs (ver.1)

Artists:  A B C D E F G H I J K L M N O P Q R S T U V W X Y Z # 

Sugar Free Tabs (ver.1)

Mighty Mighty Bosstones Tabs
 Rating:
4/5 (4 votes)
Sugar Free lessons Tabs too difficult? Try these video lessons and learn fast
1
                MR "unbelieveable", "amazing", "Motherf**king", "cool", "fat",
"klein", "Wurstfinger" Dirk Edelhoff

> = strum
° = let it ring

INTRO

E -------------------------------------|
B -------------------------------------|
G 6--4-6-7-6--4-6-4-6--7-6-4--2-4-6-2--|
D 7--------7--------7------6--------4--| x2
A 0--------0--------0------------------|
E -------------------------------------|


VERSE

E ---------------|
B ---------------|
G -2°--4------7--|
D -2°--6--6-7-7--| WELL...LISTEN TO THE ALBUM...SAME IN CHORUS...!
A -0°--7------5--|
E ---------------|


BRIDGE

E -------------|
B -------------|
G -6>--7>--9>--|
D -6>--7>--9>--|
A -4>--5>--7>--|
E -------------|


OTHER VERSION OF INTRO (FOR THE NOT SO BEGABT ONES):

E ---------------------------------|
B ---------------------------------|
G -6-4-6-7-6-4-6-4-6-7-6-4---4-6---|
D -------------------------7-----7-|
A ---------------------------------|
E ---------------------------------|

HORN PART

E -?>-|
B -?>-|
G -?>-|
D -?>-| NO IDEA - LISTEN TO THE ALBUM
A -?>-|
E -?>-|
            
Submit corrections

comments powered by Disqus
↑ Back to top | Mighty Mighty Bosstones Tabs for Sugar Free. Lyrics for acoustic guitar and electric guitar. 1 Tablatures and chords are parodies/interpretations of the original songs. You may use it for private study, scholarship, research or language learning purposes only