» » »

Mighty Mighty Bosstones, Over The Eggshells Bass tabs (ver.1)

Artists:  A B C D E F G H I J K L M N O P Q R S T U V W X Y Z # 

Over The Eggshells Bass tabs (ver.1)

Mighty Mighty Bosstones Tabs
 Rating:
4/5 (4 votes)
Over The Eggshells lessons Tabs too difficult? Try these video lessons and learn fast
1
                G-------------------------------------------------------------------|
D-------------------------------------------------------------------|
A-55555555----------------11111111-55555555----------------11111111-|
E---------1111111133333333-----------------1111111133333333---------|
                                                                            2X
G------------------------------------------------------------------------------>I
D------3333------------------------------------3333---------------------------->I
A-5555----------------5555------1111-3333-5555----------------33-33-00-0-0000-->I
E-----------6666-3333------1111---------------------6666-3333------------------>I

G-----------------------------------------------------------------|
D-----------------------------------------------------------------|
A-55-55-----------------11-1-1111-55-55-----------00-00-00-0-0----|
E-------11-1-1111-33-33-----------------11-1-1111-------------310-|

G----------------------------------|
D----------------------------------|
A-55555555----------------11111111-|
E---------1111111133333333---------|
                                                                            2X
G------------------------------------------------------------------------------>I
D------3333------------------------------------3333---------------------------->I
A-5555----------------5555------1111-3333-5555----------------33-33-00-0-0000-->I
E-----------6666-3333------1111---------------------6666-3333------------------>I

G-----------------------------------------------------------------|
D-----------------------------------------------------------------|
A-55-55-----------------11-1-1111-55-55-----------00-00-00-0-0----|
E-------11-1-1111-33-33-----------------11-1-1111-------------310-|

                                                   
G-------------------------------------------------I----2----------------->I
D-------------------------------------------------I-320--320---5-5--3-3-->I
A-55-55-----------------11-1-1111-55-55-----------I---------1------------>I
E-------11-1-1111-33-33-----------------11-1-1111-I---------------------->I
   
G-I------I-7777------3333------7777------3333-5555-7777------3333----------------------|
D-I-0000-I------3333------5555------3333----------------3333------5555-----------------|
A-I------I-------------------------------------------------------------33-33-00-0-0----|
E-I------I-------------------------------------------------------------------------310-|

                                                                3X
G-----------------------------------------------------------------|
D-----------------------------------------------------------------|
A-55-55-----------------11-1-1111-55-55-----------00-00-00-0-0----|
E-------11-1-1111-33-33-----------------11-1-1111-------------310-|

G------------------------------------------------------2-----------|
D---------------------------------------------------320--320---5-5-|
A-55555555----------------11111111-55555555-----------------1------|
E---------1111111133333333-----------------11111111----------------|

thats it i guess..
if you find mistakes plz send me your corrections..
  xxSID
            
Submit corrections

comments powered by Disqus
↑ Back to top | Mighty Mighty Bosstones Bass for Over The Eggshells. Lyrics for acoustic guitar and electric guitar. 1 Tablatures and chords are parodies/interpretations of the original songs. You may use it for private study, scholarship, research or language learning purposes only