» » »

Mighty Mighty Bosstones, Numbered Days Tabs (ver.1)

Artists:  A B C D E F G H I J K L M N O P Q R S T U V W X Y Z # 

Numbered Days Tabs (ver.1)

Mighty Mighty Bosstones Tabs
Rating:
4/5 (1 vote)
Numbered Days lessons Tabs too difficult? Try these video lessons and learn fast
                #


Album:Let's Face It
BAnd:Mighty Mighty Bosstones

This was easy to tab, if you want any Mighty Bosstones tab just e-mail

Intro:(with distorcion)D-A-G

Verse:(ska guitar)
       D       -       A           -   G
E--5--5--5--5--------5--5--5-5-------3--3--3--3--3--3-3--3----|
B--7--7--7--7--------5--5--5-5-------3--3--3--3--3--3-3--3----|
G--7--7--7--7--------6--6--6-6-------4--4--4--4--4--4-4--4----|
D-------------------------------------------------------------|
A-------------------------------------------------------------|
E-------------------------------------------------------------|

D                            A                       G
Familiar with his kind He'll beat someone down for fun
    D             A                           G
He's got an ax to grind And he'll target anyone
D                   A           G
Brass knuckles in his pocket
 D                      A                G
Steel-toed shoes Life of the party
D
When you factor in booze
A                         G
Familiar with his kind He'll target anyone

Chorus:(with distorcion)
     D     -  A     - G           -
E--------------------------------------|
B--------------------------------------|
G--7-7-7-7-----------------------------|
D--7-7-7-7----7-7-7----5-5-5-5-5-5-----|
A--5-5-5-5----7-7-7----5-5-5-5-5-5-----|
E-------------5-5-5----3-3-3-3-3-3-----|
-

 D   -      A       -   G        -           D- A
---------------------------------------------------|
---------------------------------------------------|
7-7-7-7--------------------------------------7-----|
7-7-7-7----7-7-7-7-----5-5-5-5-5-5-5-5-5-----7--7--|
5-5-5-5----7-7-7-7-----5-5-5-5-5-5-5-5-5-----5--7--|
-----------5-5-5-5-----0-0-3-0-0-3-0-0-3--------5--|

D         A
Violence, when will they learn?
G
Time's running out  And the tables will
       D                           A                         G
turn The days have been numbered And your number's coming up

Repeat VERSE

Repeat CHORUS

Bridge:
          -
E----------------------------------------------------------------|
B----------------------------------------------------------------|
G----------------------------------------------------------------|
D--5-5-5-5------------------------7-7-7-7----5-5--4-4--2-2--0-0~-|
A--5-5-5-5---5-5--4-4--2-2--0-0---7-7-7-7------------------------|
E--3-3-3-3------------------------5-5-5-5------------------------|
                              A                 G
The charge what? homicide? Alone he took the fall

His friends all
          A
testified They weren't there at all
G
He cried like a baby When his
              a                                  G
sentence was passed For himself and not the victim
                A
But this victim was his last yes it was his last victim

Repeat Verse(with distorcion)

Repeat CHORUS

End:

E----------------------------------------------------------|
B----6-----------------------------------------------------|
G-------7---5----------------------------------------------|
D--------------7---5------------------------------3-~~~~---|
A---------------------8----5----3---0----------------------|
E----------------------------------------3----1------------|
            
Submit corrections

comments powered by Disqus
↑ Back to top | Mighty Mighty Bosstones Tabs for Numbered Days. Lyrics for acoustic guitar and electric guitar. Tablatures and chords are parodies/interpretations of the original songs. You may use it for private study, scholarship, research or language learning purposes only