» » »

Lights Out Bass tabs (ver.1)

Artists:  A B C D E F G H I J K L M N O P Q R S T U V W X Y Z # 

Lights Out Bass tabs (ver.1)

Mighty Mighty Bosstones
Rating:
0/5 (0 votes)

Hard to play? Try these video lessons and learn fast.
                
~ let ring


        0:04    0:08                                                    0:15
G--------------------------------------------------------------------------->
D-------13------3---------------------------3---------------------11110----->
A----------------3-333-3-33-33--------11110--3-333-3-33-33------------------>
E-1~---------------------------33-333----------------------33-333-------1~-->

  0:18    0:22                                                    0:29
>--------------------------------------------------------------------->
>-13------3---------------------------3---------------------11110----->
>----------3-333-3-33-33--------11110--3-333-3-33-33------------------>
>------------------------33-333----------------------33-333-------1~-->

  0:32    0:36
>----------------------------------------------------------------->
>-13------3---------------------------3--------------------------->
>----------3-333-3-33-33--------11110--3-333-3-33-33--------11110->
>------------------------33-333----------------------33-333------->


>-----------------------------------|
>-3---------------------------3--3--|
>--3-333-3-33-33--------11110--3--3-|
>----------------33-333-------------|

thats all.. 50 sec.. have fun..
  xxSID
            
Hard to play? Try these video lessons and learn fast. | Correct




comments powered by Disqus
↑ Back to top | Tablatures and chords are parodies/interpretations of the original songs. You may use it for private study, scholarship, research or language learning purposes only