>
 >
Let's Face It

Let's Face It Bass Tabs

Mighty Mighty Bosstones - Let's Face It chords, tabs, tablatures, lyrics

Guitar lessons | Add/correct | Request | Top 50 tabs Artists:  A B C D E F G H I J K L M N O P Q R S T U V W X Y Z 0-9

Let's Face It Bass Tabs – Mighty Mighty Bosstones

CD, Sheet music, Poster

Do you like Let's Face It? Share with your friends now
Bass Tabs

Tuning: Standard (G D A E)


Intro (x2)			          Second time, play the 7 twice.
G|--------------------------------------------------------------------|
D|--------------------------------------------------------------------|
A|-----------5-4---------2---5-4-----------------4-5--5-4-4-----------|
E|--5--5-7-5-----5--2--2---2-----5---7--7-5-7--7------------5-5-7-(7)-|


Verse (x2)
G|-----------------------------------------------------|
D|-----------------------------------------------------|
A|---------4-7---------4-7---------4--7-6-4\2-0-2/4--|
E|--5--5--------2--2--------0--0-----------------------|


Chorus
G|-------------------------------------------|
D|--6-------------4--6-----------------------|
A|-----7--4----5--------7--4----5------------|
E|----------7----------------7-----0---------|

G|-------------------------------------------|
D|--6-------------4--------------------------|
A|-----7--4----5----5--7--4--5--5-2-2-2-4-4--|
E|----------7--------------------------------|


Verse (x2)
G|-----------------------------------------------------|
D|-----------------------------------------------------|
A|---------4-7---------4-7---------4--7-6-4\2-0-2/4--|
E|--5--5--------2--2--------0--0-----------------------|


Chorus
G|-------------------------------------------|
D|--6-------------4--6-----------------------|
A|-----7--4----5--------7--4----5------------|
E|----------7----------------7-----0---------|

G|-------------------------------------------|
D|--6-------------4--------------------------|
A|-----7--4----5----5--7--4--5--5-2-2-2-4-4--|
E|----------7--------------------------------|





Intro Riff (x2)
G|--------------------------------------------------------------------|
D|--------------------------------------------------------------------|
A|-----------5-4---------2---5-4-----------------4-5--5-4-4-----------|
E|--5--5-7-5-----5--2--2---2-----5---7--7-5-7--7------------5-5-7-----|


Bridge
G|--6~~----4~~----7~~----6~~-----6~~----4~~----7~~----6~~---|
D|----------------------------------------------------------|
A|----------------------------------------------------------|
E|-----5------5------5------5-------5------5------5------5--|


Guitar Solo
G|--------------------------------------------------------------------|
D|--------------------------------------------------------------------|
A|-----4-7------4-7-----4-7-5-4\2-0-2/4-----4-7------4-7---4-7-5-2-|
E|-5\------2-2------0---------------------5\------2-2------0----------|


Chorus
G|-------------------------------------------|
D|--6-------------4--6-----------------------|
A|-----7--4----5--------7--4----5------------|
E|----------7----------------7-----0---------|

G|-------------------------------------------|
D|--6-------------4--------------------------|
A|-----7--4----5----5--7--4--5--5-2-2-2-4-4--|
E|----------7--------------------------------|


Intro Riff (A little different)
G|--------------------------------------------------------------------|
D|--------------------------------------------------------------------|
A|-----------5-4---------2---5-4-----------------4-5--5-4-4-----------|
E|--5--5-7-5-----5--2--2---2-----5---7--7-5-7--7------------5-5-7-----|

G|--------------------------------------------------------------------|
D|--------------------------------------------------------------------|
A|-----------5-4---------5---5-4-----------------4-5--5-4-4-----------|
E|--5--5-7-5-----5--2--2---2-----5---7--7-5-7--7------------5-5-7-----|

G|--------------------------------------------------------------------|
D|--------------------------------------------------------------------|
A|-------5---5-4---------5---5-4-----------------4-5--5-4-4-----------|
E|--5--5---5-----5--2--2---2-----5---7--7-5-7--7------------5-5-7-----|

G|--------------------------------------------------------------------|
D|--------------------------------------------------------------------|
A|-----------5-4---------2---5-4-----------------4-5--5-4-4-----------|
E|--5--5-7-5-----5--2--2---2-----5---7--7-5-7--7------------5-5-7-5\-|




Outro 
G|--------------------------------------------------------------------|
D|--------------------------------------------------------------------|
A|-----------5-4---------5---5-4-----------------4-5--5-4-4-----------|
E|--5--5-7-5-----5--2--2---2-----5---7--7-5-7--7------------5-5-7-----|

G|--------------------------------------------------------------------|
D|--------------------------------------------------------------------|
A|-----------5-4---------2---5-4-----------------4-5--5-4-4-----------|
E|--5--5-7-5-----5--2--2---2-----5---7--7-5-7--7------------5-5-7-7---|

G|-----------------------------------------------------|
D|-----------------------------------------------------|  Fade
A|---------4-7---------4-7---------4--7-6-4\2-0-2/4--|  out.
E|--5--5--------2--2--------0--0-----------------------|

Thanks for checking out my tab, rate and comment if it helped!





Comments


Popular Mighty Mighty Bosstones tabs & chords
Bartenders Song Bass Tabs
Let Me Be Bass Tabs
A Little Bit Ugly Chords
Numbered Days Chords
Rascal King Chords
Chasing The Sun Away Tabs
Do Somthing Crazy Tabs
Hell Of A Hat 2 Tabs
Numbered Days Tabs
Wrong Thing Right Then Tabs


Song lyrics



↑ Back to top | Tablatures and chords are parodies/interpretations of the original songs. You may use it for private study, scholarship, research or language learning purposes only
© 2014 AZChords.com Contact us | Privacy policy | DMCA | Add/correct tabs | Request tabs | Top 50 tabs