» » »

Mighty Mighty Bosstones, Let's Face It Bass tabs (ver.1)

Artists:  A B C D E F G H I J K L M N O P Q R S T U V W X Y Z # 

Let's Face It Bass tabs (ver.1)

Mighty Mighty Bosstones Tabs
Rating:
0/5 (0 votes)
Let's Face It lessons Tabs too difficult? Try these video lessons and learn fast
                
Tuning: Standard (G D A E)


Intro (x2)			          Second time, play the 7 twice.
G|--------------------------------------------------------------------|
D|--------------------------------------------------------------------|
A|-----------5-4---------2---5-4-----------------4-5--5-4-4-----------|
E|--5--5-7-5-----5--2--2---2-----5---7--7-5-7--7------------5-5-7-(7)-|


Verse (x2)
G|-----------------------------------------------------|
D|-----------------------------------------------------|
A|---------4-7---------4-7---------4--7-6—-4\2-0—-2/4--|
E|--5--5--------2--2--------0--0-----------------------|


Chorus
G|-------------------------------------------|
D|--6-------------4--6-----------------------|
A|-----7--4----5--------7--4----5------------|
E|----------7----------------7-----0---------|

G|-------------------------------------------|
D|--6-------------4--------------------------|
A|-----7--4----5----5--7--4--5--5-2-2-2-4-4--|
E|----------7--------------------------------|


Verse (x2)
G|-----------------------------------------------------|
D|-----------------------------------------------------|
A|---------4-7---------4-7---------4--7-6—-4\2-0—-2/4--|
E|--5--5--------2--2--------0--0-----------------------|


Chorus
G|-------------------------------------------|
D|--6-------------4--6-----------------------|
A|-----7--4----5--------7--4----5------------|
E|----------7----------------7-----0---------|

G|-------------------------------------------|
D|--6-------------4--------------------------|
A|-----7--4----5----5--7--4--5--5-2-2-2-4-4--|
E|----------7--------------------------------|





Intro Riff (x2)
G|--------------------------------------------------------------------|
D|--------------------------------------------------------------------|
A|-----------5-4---------2---5-4-----------------4-5--5-4-4-----------|
E|--5--5-7-5-----5--2--2---2-----5---7--7-5-7--7------------5-5-7-----|


Bridge
G|--6~~----4~~----7~~----6~~-----6~~----4~~----7~~----6~~---|
D|----------------------------------------------------------|
A|----------------------------------------------------------|
E|-----5------5------5------5-------5------5------5------5--|


Guitar Solo
G|--------------------------------------------------------------------|
D|--------------------------------------------------------------------|
A|-----4-7------4-7-----4-7-5—-4\2-0—-2/4-----4-7------4-7---4-7-5-—2-|
E|-5\------2-2------0---------------------5\------2-2------0----------|


Chorus
G|-------------------------------------------|
D|--6-------------4--6-----------------------|
A|-----7--4----5--------7--4----5------------|
E|----------7----------------7-----0---------|

G|-------------------------------------------|
D|--6-------------4--------------------------|
A|-----7--4----5----5--7--4--5--5-2-2-2-4-4--|
E|----------7--------------------------------|


Intro Riff (A little different)
G|--------------------------------------------------------------------|
D|--------------------------------------------------------------------|
A|-----------5-4---------2---5-4-----------------4-5--5-4-4-----------|
E|--5--5-7-5-----5--2--2---2-----5---7--7-5-7--7------------5-5-7-----|

G|--------------------------------------------------------------------|
D|--------------------------------------------------------------------|
A|-----------5-4---------5---5-4-----------------4-5--5-4-4-----------|
E|--5--5-7-5-----5--2--2---2-----5---7--7-5-7--7------------5-5-7-----|

G|--------------------------------------------------------------------|
D|--------------------------------------------------------------------|
A|-------5---5-4---------5---5-4-----------------4-5--5-4-4-----------|
E|--5--5---5-----5--2--2---2-----5---7--7-5-7--7------------5-5-7-----|

G|--------------------------------------------------------------------|
D|--------------------------------------------------------------------|
A|-----------5-4---------2---5-4-----------------4-5--5-4-4-----------|
E|--5--5-7-5-----5--2--2---2-----5---7--7-5-7--7------------5-5-7—-5\-|




Outro 
G|--------------------------------------------------------------------|
D|--------------------------------------------------------------------|
A|-----------5-4---------5---5-4-----------------4-5--5-4-4-----------|
E|--5--5-7-5-----5--2--2---2-----5---7--7-5-7--7------------5-5-7-----|

G|--------------------------------------------------------------------|
D|--------------------------------------------------------------------|
A|-----------5-4---------2---5-4-----------------4-5--5-4-4-----------|
E|--5--5-7-5-----5--2--2---2-----5---7--7-5-7--7------------5-5-7-7---|

G|-----------------------------------------------------|
D|-----------------------------------------------------|  Fade
A|---------4-7---------4-7---------4--7-6—-4\2-0—-2/4--|  out.
E|--5--5--------2--2--------0--0-----------------------|

Thanks for checking out my tab, rate and comment if it helped!
            

comments powered by Disqus
↑ Back to top | Mighty Mighty Bosstones Bass for Let's Face It. Lyrics for acoustic guitar and electric guitar. Tablatures and chords are parodies/interpretations of the original songs. You may use it for private study, scholarship, research or language learning purposes only