>
 >
Holy Smoke Horns

Holy Smoke Horns Bass Tabs

Mighty Mighty Bosstones - Holy Smoke Horns chords, tabs, tablatures, lyrics

Guitar lessons | Add/correct | Request | Top 50 tabs Artists:  A B C D E F G H I J K L M N O P Q R S T U V W X Y Z 0-9

Holy Smoke Horns Bass Tabs – Mighty Mighty Bosstones

CD, Sheet music, Poster

Do you like Holy Smoke Horns? Share with your friends now
Bass Tabs
This is a transcription of the horn parts for The Mighty Mighty BossToneS' 'Holy Smoke' from 'Don't Know How To Party'.

Note: This is a kick-@$$ horn line, and I can't believe I captured it in bass format.

Part 1: Spoken words.

Part 2: Nate Albert's schweet guitar intro.

Part 3: Horns.

G|-------2---------
D|---2-4---6-4-6---
A|-2-------------7-
E|-----------------

G|-------2---------
D|---2-4---6-4-1-2-
A|-2---------------
E|-----------------

G|-------2-----9-9-
D|---2-4---6-4-----
A|-2---------------
E|-----------------

G|-------2---------
D|---2-4---6-4-6---
A|-2-------------7-
E|-----------------

Part 4: Dicky starts singing.

Part 5: 'Well, I made my bed, that's where I lie..."

G|-4---4---9---------
D|---2-------1---9-2-
A|-------------4-----
E|-------------------

(the two is optional. It sounds like there's eight horn notes in the song, but the sheet music shows only seven. i'm not sure about how good this sounds, but it's close.)

"No pearly gates, when I die..."

G|-4---4---9---------
D|---2-------1---9-2-
A|-------------4-----
E|-------------------

"And I've been told I'll never learn..."

G|-4---4---9---------
D|---2-------1---9-2-
A|-------------4-----
E|-------------------

"I'm goin' down, I'm gonna..."

G|---1-2-1-----1-2-
D|---------9-7-----
A|-2---------------
E|-----------------

Part 6: Pre-Chorus, right after Dicky sings 'But I don't give a f-ck."

Play the first three parts of the intro, then, instead of part four, play this:

G|-------
D|-----4-
A|-2-7---
E|-------

You can also use the second fret on the e-string or the ninth fret on the a-string instead of the 4. It depends on whether you want to end it high, low, or not.

Part 7: The chorus ("As far as I can tell...)

Slowly...

G|--------------------------------
D|---------9~-----2~-----------9~-
A|-2~~--7~-----------6~-----4~----
E|--------------------------------

Play Three times! That's "3", for all yooz idiotz.

Part 8: Comin' back from the chorus!

G|---------1--------2----
D|-----------9----6------
A|---11-12------------11-
E|-7---------------------


Part 9: 'Well, you made your bed, that's where you lie..."

G|-4---4---9---------
D|---2-------1---9-2-
A|-------------4-----
E|-------------------

"No pearly gates, when you die..."

G|-4---4---9---------
D|---2-------1---9-2-
A|-------------4-----
E|-------------------

"We tried to teach, you didn't learn..."

G|-4---4---9---------
D|---2-------1---9-2-
A|-------------4-----
E|-------------------


"You're goin' down, you're gonna gonna burn."

G|---1-2-1-----1-2-
D|---------9-7-----
A|-2---------------
E|-----------------




WWWWWWWWWWWWWHHHHHHHHHHHHHHHHHHHHHYYYYYYYYYYYYYYYYYYYYYYYY?!?!?!?!!

I could not tab the parts where Dicky starts singing 'Holy smoke, is this a joke?' and so on. But hey, at least I got the intro part, and it's REAlly good. Really. Don't worry, kids, I'll get this somehow.
Okay, back to work.


Part 11: 'Well, you made your bed, that's where you lie..."

G|-4---4---9---------
D|---2-------1---9-2-
A|-------------4-----
E|-------------------

"No pearly gates, when you die..."

G|-4---4---9---------
D|---2-------1---9-2-
A|-------------4-----
E|-------------------

"We tried to teach, you didn't learn..."

G|-4---4---9---------
D|---2-------1---9-2-
A|-------------4-----
E|-------------------


"You're goin' down, you're gonna gonna burn."

G|---1-2-1-----1-2-
D|---------9-7-----
A|-2---------------
E|-----------------



Part 12: "Well, at least I got a place to sleep."

G|-------2---------
D|---2-4---6-4-6---
A|-2-------------7-
E|-----------------

"Why should I worry now or cry?"

G|-------2---------
D|---2-4---6-4-1-2-
A|-2---------------
E|-----------------

"You know, I'm really not concerned!"

G|-------2-----9-9-
D|---2-4---6-4-----
A|-2---------------
E|-----------------




And, gosh darnit, I couldn't tab the end. No, not the outro, that's above. I mean the END end. 





Comments


Popular Mighty Mighty Bosstones tabs & chords
Dogs And Chaplains 1 Bass Tabs
Dr. D 1 Bass Tabs
Is It? Bass Tabs
You Gotta Go Bass Tabs
Numbered Days Chords
That Bug Bit Me Drum Tabs
Riot On Broad Street Tabs
Someday I Suppose Tabs
To California Tabs
Kinder Words Ukulele


Song lyrics



↑ Back to top | Tablatures and chords are parodies/interpretations of the original songs. You may use it for private study, scholarship, research or language learning purposes only
© 2014 AZChords.com Contact us | Privacy policy | DMCA | Add/correct tabs | Request tabs | Top 50 tabs