» » »

Mighty Mighty Bosstones, Do Something Crazy Tabs (ver.1)

Artists:  A B C D E F G H I J K L M N O P Q R S T U V W X Y Z # 

Do Something Crazy Tabs (ver.1)

Mighty Mighty Bosstones Tabs
 Rating:
4/5 (4 votes)
Do Something Crazy lessons Tabs too difficult? Try these video lessons and learn fast
1
                

------------------------------------------------------------------------------|
------------------------------------------------------------------------------|
------------------------------------------------------------------------------|
-2222222-55555555-77777777----0-----------0-----------------------------------|
-2222222-55555555-77777777--2---2-0---0-2-------------------------------------|
-0000000-33333333-55555555----------3-----------------------------------------|
 INTRO guitar 1 and 2

-----------------------------------|------------------------------------------|
-----------------------------------|------------------------------------------|
-----------------------------------|-7-5-7-5-7-5-7-5-7b-----------------------|
--2-2-2-2-5-5-5-5-7-7-7-7-9-9-9-9--|----------------------5-------------------|
--2-2-2-2-5-5-5-5-7-7-7-7-9-9-9-9--|----------------------5-------------------|
--0-0-0-0-3-3-3-3-5-5-5-5-7-7-7-7--|----------------------3-------------------|
 CHORUS guitar 1 (palm muted)2x      guitar 2

----------5-55-5-777----------------------------------------------------------|
----------5-55-5-777----------------------------------------------------------|
-9-9-9-99-5-55-5-777----------------------------------------------------------|
-7-7-7-77---------------------------------------------------------------------|
-7-7-7-77---------------------------------------------------------------------|
------------------------------------------------------------------------------|
 VERSE guitar 1 and 2 4x

------------------------------------------------------------------------------|
------------------------------------------------------------------------------|
------------------------------------------------------------------------------|
-2---5---7---9----------------------------------------------------------------|
-2---5---7---9----------------------------------------------------------------|
-0---3---5---7----------------------------------------------------------------|
 CHORUS  4x

----------5-55-5-777----------------------------------------------------------|
----------5-55-5-777----------------------------------------------------------|
-9-9-9-99-5-55-5-777----------------------------------------------------------|
-7-7-7-77---------------------------------------------------------------------|
-7-7-7-77---------------------------------------------------------------------|
------------------------------------------------------------------------------|
 VERSE guitar 1 and 2 4x

------------------------------------------------------------------------------|
------------------------------------------------------------------------------|
------------------------------------------------------------------------------|
-2---5---7---9----------------------------------------------------------------|
-2---5---7---9----------------------------------------------------------------|
-0---3---5---7----------------------------------------------------------------|
 CHORUS 2x

-----------------------|-7----------------------------------------------------|
-----------------------|-7----------------------------------------------------|
-9-12-11-9-7/9-9-12-14-|-7----------------------------------------------------|
-----------------------|-7----------------------------------------------------|
-----------------------|------------------------------------------------------|
-----------------------|------------------------------------------------------|
 SOLO guitar 1 2x         guitar 2 (just hit this chord oh the upbeat)

--------------------------------------|---------------------------------------|
--------------------------------------|---------------------------------------|
--------------------------------------|---------------------------------------|
-22222-555555-7777777---0-----------0-|---------------------------------------|
-22222-555555-7777777-2---2-0---0-2---|---------------------------------------|
-00000-333333-5555555---------3-------|---------------------------------------|
 CHORUS (palm muted) guitar 1 2x        guitar 2 (wait till guitar 1 does

------------------------------------------------------------------------------|
------------------------------------------------------------------------------|
-9--7-9-7-9--7-9--7-9-7-9--7-9--7-9-7-9--7-9b-r9p7-9-7------------------------|
------------------------------------------------------------------------------|
------------------------------------------------------------------------------|
------------------------------------------------------------------------------|
 that 1 time then play this)

---------------------|--------------------------------------------------------|
---------------------|-9b-r9p7-9-7--------------------------------------------|
---------------------|--------------------------------------------------------|
-2---5---7---9-------|--------------------------------------------------------|
-2---5---7---9-------|--------------------------------------------------------|
-0---3---5---7-------|--------------------------------------------------------|
 CHORUS guitar 1 4x    guitar 2 fill (fill at every B5)
            
Submit corrections

comments powered by Disqus
↑ Back to top | Mighty Mighty Bosstones Tabs for Do Something Crazy. Lyrics for acoustic guitar and electric guitar. 1 Tablatures and chords are parodies/interpretations of the original songs. You may use it for private study, scholarship, research or language learning purposes only