» » »

Everything Tabs

Artists:  A B C D E F G H I J K L M N O P Q R S T U V W X Y Z # 

Everything Tabs

(ver. 1)
Michael Buble Tabs
 Rating:
3/5 (47 votes)
    Everything lessons Tabs too difficult? Try these video lessons and learn fast
                -------------------------------------------------------------------------------
			     Everything - Michael Bublé
-------------------------------------------------------------------------------

Tuning: Normal (EADGBE)





e|-----0h2-----------0h2-0-----2-|
B|-----3----3--------0---0--3--3-|
G|---2-------2-2s1---1---1--0--2-|
D|-0------------------------2----|  X2
A|------------------------0------|
E|-----------------0-------------|


e|-----0h2-----------0h2-0----------0h2-0------2---------|
B|-----3----3--------0---0--3-------0---0---3--3---------|
G|---2-------2-2s1---1---1-------0----------0--2---------|
D|-0----------------------------------------2--0---------|
A|----------------------------------------0--------------|
E|-----------------0-----------3-------------------------|



[Verse 1]
 D
You're a falling star
           E7
You're the getaway car
           G		   A7sus4
You're the line in the sand
       D
When I go to far
           D
You're the swimming pool
      E7
On an august day
                  G    A7sus4   D
And you're the perfect thing to say

        D                    E7
And you play it coy but it's kinda cute
            G               A7sus4        D
Oh when you smile at me you know exactly what you do
     D                            E7
Baby don't pretend that you don't know it's true
              G             A7sus4  D
Cause you can see it when I look at you


[Pre-Chorus]
            G     A7sus4 D
And in this cra-------zy life
                  G  A7sus4    D
And through these cra-------zy times
     D7       G
It's you it's you
    D/F#    Bm   Bm/A
You make me sing
             E7
You're every line
             G
You're every word
            D
You're everything

You're a carousel
You're a wishing well
And you light me up
When you ring my bell
You're a mystery
You're from outer space
You're every minute of my every day

And I can't believe that I'm your man
And I get to kiss you baby just because I can
Whatever comes our way we'll see it through
And you know that's what our love can do

And in this crazy life
And through these crazy times
It's you, it's you
You make me sing
You're every line
You're every word
You're everything

[Solo]
e|---------------------------------------------------------------------------|
B|----------------7----------------------------------------------------------|
G|-------------------9--7------7-7--------7----7h9-7--7----------------------|
D|-------------7----------9--7-----9--7/9---9--------------0-----------------|
A|-5-5-5-5-7/9---------------------------------------------------5-5---------|
E|-----------------------------------------------------------5-5-------------|

e|---------------------0/2----------3h5-3------0h2--0------------------------|
B|-3-3-2-2-0-0------0------3-------3----------3------3-----------------------|
G|-------------2-1------------0---3----------2-------------------------------|
D|------------------------------------------0--------------------------------|
A|---------------------------------------------------------------------------|
E|---------------------------------------------------------------------------|

And so la la la la... la la la
So la la la la... la la la

	    A  B7sus4	E
And in this cra------zy life
	    A  B7sus4	E
And through these crazy times
     E7	      A   E/G#
It's you,it's you
	     C#m
You make me sing
	     F#7
You're every line
	     A
You're every word
	     E     F#7
You're everythi----ng...

	    F#7
You're every song
	    A
And I sing along
	    E
Cause you're my everything

E F#7 A E

Yeah, yeah

So la la la la... la la la
So la la la la... la la-la-la... la-la-la



//Feel free to give me critique, enjoy the tab. ;)
            
Submit corrections

↑ Back to top | Michael Buble Tabs for Everything. Lyrics for acoustic guitar and electric guitar. Tablatures and chords are parodies/interpretations of the original songs. You may use it for private study, scholarship, research or language learning purposes only