» » »

Metallica, Wasting My Hate Tabs (ver.1)

Artists:  A B C D E F G H I J K L M N O P Q R S T U V W X Y Z # 

Wasting My Hate Tabs (ver.1)

Metallica Tabs
Rating:
0/5 (0 votes)
Hard to play? Try these video lessons and learn fast.
                Here is my interpretation of the song:
                WASTING MY HATE
                 (from Load)
                   by Metallica

It becomes much easier if you CAPO at 1st fret on drop-d tuning
(or perhaps tune up half a step).
It will also sound ok without capo (if you don't play with recording ;))

Tuning for this tab: D#(E# droped down 2 half steps), A#, D#, G#, C ,E#

Intro riff (Ididn't tab the slides)  &  chrous riff(with dist.)
-----------------------|------------|-------------|---------------|
-----------------------|------------|-------------|---------------|
-----------------------|------------|-------------|---------------|
-----------------------|------------|-------------|---------------|
--------------0---5--5-|5p3-0--3--3-|-0-h3-5------|--------0------|
--0--0---0-h5----------|------------|---------5-5-|-0-3-h5----0-0-|


Riff A: (2x)     Riff B: (also put some mufled tones)  then play A riff
---------------|------------------------------------------|
---------------|------------------------------------------|
---------------|-7----7----7--6---5---5---5---------------|
-3-sl-5--5--0--|-7----7----7--6---5---5---5--0---6---6--5-|
-3-sl-5--5--0--|-5----5----5--4---3---3---3--0---6---6--5-|
-3-sl-5--5--0--|---0----0-----------0---0--------6-6-6--5-|
            PM     PM   PM                         PM

Riff C:  (main singing part)    Riff D:
------------------------------|---------------...
------------------------------|---------------...
-7--7-7------8--8-8-8-8---8---|---5--7---5--7-...
-7--7-7--7---8--8-8-8-8---8-0-|---5--7---5--7-...
-5--5-5--5---6--6-6-6-6---6-0-|---3--5---3--5-...
-0--0-0--0--------------------|-0------0------...
         PM

Variation of the chorus riff: ("...no more waste my hate on you")
---------------------------|-------------------|
---------------------------|-------------------|
---------------------------|-------------------|
-----------------3-2-0-2-2-|-3-3--3p2-0------0-|
------0-5--5-5-5-----------|-------------3-3---|
0-h-5----------------------|-------------------|


Varioation of D riff at the end: (play it then put
-
-
8
8
6
-   and muffle strings

before chorus riff: ("...for myself...")
-5-5-5-5-----
-6-6-6-6-----
-------------
-------------
-------------
-------------

That is most of the song (tabed from memory).

Yours
 
P.S.  Please e-mail me 4 HORSEMEN solo!
            

comments powered by Disqus
↑ Back to top | Metallica Tabs for Wasting My Hate. Lyrics for acoustic guitar and electric guitar. Tablatures and chords are parodies/interpretations of the original songs. You may use it for private study, scholarship, research or language learning purposes only