» » »

The Unforgiven Tabs (ver.6)

Artists:  A B C D E F G H I J K L M N O P Q R S T U V W X Y Z # 

The Unforgiven Tabs (ver.6)

Metallica
Rating:
0/5 (0 votes)

Hard to play? Try these video lessons and learn fast.
                (Intro)

please forgive me if its not right, but this is what i can hear
here is 'the unforgiven' by metallica
(normal tuning)
H=HAMMER ON  /=SLIDE
e---------------------------------     
B-0-----0-----0-----0-----1-------
G---2-----2-----2-----2-----2-----
D-----2-----2-----2-----2-----2---
A-0-------------------------------
E---------------------------------

Keep on repeating this through kirks bit which is;

e-------------------------------------  Repeat this twice
B-------------------------------------
G-2--4--4H5--5--4--2--2--4--4H5--5--2-
D-------------------------------------
A-------------------------------------
E-------------------------------------

e-------------------------------------
B-------------------------------------
G-2--4--4H5-5--5-5-4----4/---2--2H4--2
D---------------------5---2-----------
A-------------------------------------
E-------------------------------------

e----------------------------------------------
G------------5--5-5-3-4------------------------
B-2--4--4H5--------------4/--1--1--4--2--2H4--2
D----------------------------------------------
A----------------------------------------------
E----------------------------------------------
            
Hard to play? Try these video lessons and learn fast. | Correct




comments powered by Disqus
↑ Back to top | Tablatures and chords are parodies/interpretations of the original songs. You may use it for private study, scholarship, research or language learning purposes only