>
 >
Unforgiven 2

Unforgiven 2 Guitar Tabs

Metallica - Unforgiven 2 chords, tabs, tablatures, lyrics

Guitar lessons | Add/correct | Request | Top 50 tabs Artists:  A B C D E F G H I J K L M N O P Q R S T U V W X Y Z 0-9

Unforgiven 2 Guitar Tabs – Metallica

CD, Sheet music, Poster

Do you like Unforgiven 2? Share with your friends now
TabsTabs v2Tabs v3Tabs v4
1st guitar (Kirk)

|----------------------------------------------------------------|
|----------------------------------------------------------------|
|-2-2--4/5--7\5/7~-7/9\7--5/7\5--2-2--4/5--5\7/5--7/9\7~---------|
|-2-2--4/5--7\5/7~-7/9\7--5/7\5--2-2--4/5--5\7/5--7/9\7~--7/9\7--|
|-0-0--2/3--7\5/7~-5/9\5--3/5\3--0-0--2/3--7\5/7--5/7\5~--7/9\7--|
|-------------------------------------------------------- 5/7\5--|

2nd guitar (James)
|----------------------------------------------------------------|
|----------------------------------------------------------------|
|-2-2--4/5--7\5/---7/9\7--5/7\5--5-2--4/5--7\5/----7/9\7~--------|
|-2-2--4/5--7\5/5~-7/9\7--5/7\5--5-2--4/5--7\5/5~--7/9\7~--7/9\7-|    
|-0-0--2/3--5\3/5~-5/7\5--3/5\3--3-0--2/3--5\3/5~--5/7\5~--7/9\7-|   
|---------------3~-----------------------------3~----------5/7\5-|

|-------0----------------3-3------3--------------------|
|---------1------------1/3-3h5bp3---5bp3-0-0---1h3-1-0-| 
|-----2-------------0------------------------0---------|  
|---2-------------2------------------------------------|  
|-0---------0-2-3--------------------------------------|  
|------------------------------------------------------|     

Verse 2:
|-------0-----------3---3--------3--------------------| 
|---------1-------1---1---1--1/3---5bp3-0-0---1h3-1-0-| 
|-----2-------------------------------------0---------|
|---2-------------------------------------------------|
|-0---------0-2-3-------------------------------------|
|-----------------------------------------------------|
Verse 3:
1st guitar.....
|-5---5---3---3---3---3----------|                                   
|-5---5---3---3---3---3---5---5--|                                   
|-5---5---5---5---5---5---5---5--|                                   
|--7---7---5---5---5---5--6---6--|                                
|--------------------------7---7-|                                   
|--------------------------------|   

2nd guitar.....
|------------------------------|
|-6bp5~~~---------1h3~~~-------| 
|------------------------------|    
|------------------------------|
|------------------------------|
|------------------------------|

Verse 4:
|-1---1---1---1---3---3---1---1----0-|
|-3---3---3---3---3---3---3---3----0-|                                
|-2---2---2---2---2---2---2---2----2-|
|--0---0---0---0---0---0---0---0---2-|
|----------------------------------0-|
|------------------------------------|

Verse 5:
|-----1-----------------------------0-|
|-------3---------------------------0-|
|-------------2-3-------------------2-|
|---0-------0------------5-----3-5--2-|
|-0-------0----------2-3-----2------0-|
|-----------------3--------1----------|
Chorus:
|--------------------------------------------------------|
|-0h1--1--1--1--1p0--0--0--0--1h3--3--3--3--3p1--1--1--1-|
|-0----0--0--0--0----0--0--0--2----2--2--2--2----2--2--2-|
|--------------------------------------------------------|
|--------------------------------------------------------|
|--------------------------------------------------------|

|-----------------------------------------------------------|
|-0h1--1--1--1--1p0--0--0--0--1h3--3--3--3--3--1--0--1--0---|
|-0----0--0--0--0----0--0--0--2----2--2--2----------------2-|
|-----------------------------------------------------------|
|-----------------------------------------------------------|
|-----------------------------------------------------------|

Chorus fill in:
|-------------------|
|-------------------|
|-2-4-4/5-5-5-5-4-0-|
|-------------------|
|-------------------|
|-------------------|

Solo:
|----------------------------------------------|
|-----------------------------13-15br-13----13-|
|-2-2-4-5-7b-5h7p5-4-5----/14------------14----|
|----------------------5-----------------------|
|----------------------------------------------|
|----------------------------------------------|

|------15-----15-----15------------------|
|-15b----15b----15b----15b-15br-13----13-|
|----------------------------------14----|
|----------------------------------------|
|----------------------------------------|
|----------------------------------------|

|-15b--15b-15b-15b------17------------17--------|
|-------------------/17----17-20b-/17----17-20b-|
|-----------------------------------------------|
|-----------------------------------------------|
|-----------------------------------------------|
|-----------------------------------------------|

|-----17------------------------------------|
|-/17----17-20br-17----------19-17----19-17-|
|-------------------19-17----19-17----19-17-|
|-------------------------19-------19-------|
|-------------------------------------------|
|-------------------------------------------|

|---------------------------------|
|----19-17------------------19-17-|
|----19-17----17-19br-17----19-17-|
|-19-------19------------19-------|
|---------------------------------|
|---------------------------------|

LAST:
|------------------------------------------------------|
|------------------------------------------------------|
|--2-2~--2-2-4-4~---2~--2-7-7~--2-2~--2-4~~------------|
|--2-2~--2-2-4-4~---2~--2-7-7~--2-2~--2-4~~--5~~--2~~--|
|--0-0~--0-0-2-2~---0~--0-5-5~--0-0~--0-2~~--5~~--2~~--|
|--------------------------------------------3~~-------|





Comments


Popular Metallica tabs & chords
- Human 2 Bass Tabs
Creeping Death Bass Tabs
Dont Tread On Me Bass Tabs
Attitude 3 Tabs
Crash Course In Brain Surgery Tabs
Fade To Black Intro 2 Tabs
Fade To Black Live Tabs
Last Carress 2 Tabs
My Friend Of Misery 1 Tabs
Some Kind Of Monster 2 Tabs


Song lyrics



↑ Back to top | Tablatures and chords are parodies/interpretations of the original songs. You may use it for private study, scholarship, research or language learning purposes only
© 2014 AZChords.com Contact us | Privacy policy | DMCA | Add/correct tabs | Request tabs | Top 50 tabs