» » »

Metallica, The Unforgiven Tabs (ver.5)

Artists:  A B C D E F G H I J K L M N O P Q R S T U V W X Y Z # 

The Unforgiven Tabs (ver.5)

Metallica Tabs
Rating:
0/5 (0 votes)
The Unforgiven lessons Tabs too difficult? Try these video lessons and learn fast
                (Acoustic)
(Intro)
Intro to UNFORGIVEN by Metallica,

This one is 100% correct - I'm pretty sure about it!!!
Cool bit showing that Jaymz is really outstanding and gifted musician.
Although it's simple, but sounds awesome.


                               !**repeat***!
e|-----------------------------!-----------!-
B|-----------------------------!-----------!-
G|-----------------------------!-----------!-
D|-------------6-7-6h7p6---6---!--6-7---6--!-
A|--------/7-8-----------8---7-!8-----8---7!-
E|--0--------------------------!-----------!-
                               !***********!

e|--------------------------------------------------------------------
B|--------------------------------------------------0------0------and-
G|-----------------------------------------------------2-----2----so--
D|---6-7---6-7-9-10-10/12--14-12h14p12-------------------2-----2--on--
A|-8-----8-----------------------------14--14/15----0-----------------
E|--------------------------------------------------------------------

Have fun...
METALLICA RULEZ!

???Ei, ar yra lietuviu gitaristu kurie klauso Metallica???
            
Submit corrections

comments powered by Disqus
↑ Back to top | Metallica Tabs for The Unforgiven. Lyrics for acoustic guitar and electric guitar. Tablatures and chords are parodies/interpretations of the original songs. You may use it for private study, scholarship, research or language learning purposes only