» » »

Metallica, Outlaw Torn Tabs (ver.2)

Artists:  A B C D E F G H I J K L M N O P Q R S T U V W X Y Z # 

Outlaw Torn Tabs (ver.2)

Metallica Tabs
Rating:
0/5 (0 votes)
Outlaw Torn lessons Tabs too difficult? Try these video lessons and learn fast
                Intro Riff:
With wah
|--------------------------------|
|--------------------------------|
|-10~\---------------------------|
|-10~\-10-10--10-10--10-10--10---|
|-8~~\-8--8---8--8---8--8---8----|
|------0--0---0--0---0--0---0----|
|      PM......................	 |
|				 | 6 Times
|				 |
|--------------------------------|
|--------------------------------|
|-10~\---------------------------|
|-10~\-10-10--10-10--10-10--10---|
|-8~~\-7--7---7--7---7--7---7----|
|------0--0---0--0---0--0---0----|
       PM.....................
Then

Both guitars
With Wah
|-------------------------|
|-------------------------|
|-10-10-10-10-10-10-10-10-|
|-10-10-10-10-10-10-10-10-|
|-8--8--8--8--8--8--8--8--|
|-------------------------|

Then


Chorus riff:
with Heavy distortion
 (D5)/E5        (D5)/E5         G5\F#5 B5    G5\F#5 B5    G5\F#5/G5 B5
|----------------------------------------------------------------------------|
|----------------------------------------------------------------------------|
|----------------------------------------------------------------------------|
|----------------------------------------------------------------------------|
|-(7)/9~-X-9--X----9--(7)/9~-X-9--X-9--12\11--------12\11---------11/12/11---|
|-(5)/7~-X-7--X----7--(5)/7~-X-7--X-7--10\9--12~-12-10\9--12~-12--9-/10/9----|
|-----0--X-0--X-(0)0---0--0--X-0--X-0--------10~-10-------10~-10----------10-|
|	 	 PM			    	  	  	             |
|								             | 4 Times
|						    		             | 
|----------------------------------------------------------------------------|
|----------------------------------------------------------------------------|
|----------------------------------------------------------------------------|
|----------------------------------------------------------------------------|
|-(7)/9~-X-9--X----9--(7)/9~-X-9--X-9----------------------------------------|
|-(5)/7~-X-7--X----7--(5)/7~-X-7--X-7--10\9---------10\9----------9-/10/9----|
|-----0--X-0--X-(0)0---0--0--X-0--X-0--------10~-10-------10~-10----------12-|
                 PM


Then
 (D5)/E5
|-------------------------------|-|-|-|-|
|-------------------------------|-|-|-|-|
|-(7)/9~~~~~~~~~~~~~~~~~~~~-X\--|-|-|-|-|
|-(7)/9~~~~~~~~~~~~~~~~~~~~-X\--|-|-|-|-|
|-(5)/7~~~~~~~~~~~~~~~~~~~~-X\--|-|-|-|-|
|-------------------------------|-|-|-|-|


Verse 1:
And now I wait my whole lifetime
For You
And now I wait my whole lifetime
For You
 (D5)/E5
|-------------------------------|
|-------------------------------|
|-(7)/9~~~~~~~~~~~~~~~~~~~~-X\--|
|-(7)/9~~~~~~~~~~~~~~~~~~~~-X\--|
|-(5)/7~~~~~~~~~~~~~~~~~~~~-X\--|
|-------------------------------|


Verse 2:
I ride the dirt, I ride the tide
For you
I search the outside, search the inside
For you


Pre Chorus:
A5/B5
|----------------------------------------|
|----------------------------------------|
|----------------------------------------|
|-7/9~~~~~~~~~~~~~~~~~~~~~~~~~~~~~~~~~---|
|-7/9~~~~~~~~~~~~~~~~~~~~~~~~~~~~~~~~~---|
|-5/7~~~~~~~~~~~~~~~~~~~~~~~~~~~~~~~~~---|
For you To take back what you left me

I know I'll always burn to be
The one who seeks so I may find
And now I wait my whole life-


Chorus: (The rythm changes sometimes but I'm too lazy to figur it out.)
 (D5)/E5        (D5)/E5         G5\F#5 B5    G5\F#5 B5    G5\F#5/G5 B5
|----------------------------------------------------------------------------|
|----------------------------------------------------------------------------|
|----------------------------------------------------------------------------|
|----------------------------------------------------------------------------|
|-(7)/9~-X-9--X----9--(7)/9~-X-9--X-9--12\11--------12\11---------11/12/11---|
|-(5)/7~-X-7--X----7--(5)/7~-X-7--X-7--10\9--12~-12-10\9--12~-12--9-/10/9----|
|-----0--X-0--X-(0)0---0--0--X-0--X-0--------10~-10-------10~-10----------10-|
|	 	 PM			    	  	  	             |
|								             | 4Times
|						    		             | 
|----------------------------------------------------------------------------|
|----------------------------------------------------------------------------|
|----------------------------------------------------------------------------|
|----------------------------------------------------------------------------|
|-(7)/9~-X-9--X----9--(7)/9~-X-9--X-9----------------------------------------|
|-(5)/7~-X-7--X----7--(5)/7~-X-7--X-7--10\9---------10\9----------9-/10/9----|
|-----0--X-0--X-(0)0---0--0--X-0--X-0--------10~-10-------10~-10----------12-|
                 PM
1. -time_________________________________			   Outlaw of
2. Torn__________________________________                     
3.								   Outlaw of
4. Torn 							   And I'm Torn


Verse 3:
So on I wait my whole lifetime
For You
So on I wait my whole lifetime
For You
 (D5)/E5
|-------------------------------|
|-------------------------------|
|-(7)/9~~~~~~~~~~~~~~~~~~~~~-\--|
|-(7)/9~~~~~~~~~~~~~~~~~~~~~-\--|
|-(5)/7~~~~~~~~~~~~~~~~~~~~~-\--|
|-------------------------------|

Verse 4:
The more I search, the more my need
For you
The more I bless, the more I bleed
For You

Pre Chorus:
A5/B5
|-----------------------------------------------------------------------------|
|-----------------------------------------------------------------------------|
|-----------------------------------------------------------------------------|
|-7/9~~~~~~~~~~~~~~~~~~~~~~~~~~~~~~~---7/9~~~~~~~~~~~~~~~~~~~~~~~~~~~~~~~~~---|
|-7/9~~~~~~~~~~~~~~~~~~~~~~~~~~~~~~~---7/9~~~~~~~~~~~~~~~~~~~~~~~~~~~~~~~~~---|
|-5/7~~~~~~~~~~~~~~~~~~~~~~~~~~~~~~~---5/7~~~~~~~~~~~~~~~~~~~~~~~~~~~~~~~~~---|
   You make me smash the clock and feel___     I'd rather die behind the wheel__

|------------------------------------------------------------------------------|
|------------------------------------------------------------------------------|
|------------------------------------------------------------------------------|
|-(9)\5/7------------------------------5/7~~~~~~~~~~~~~~~~~~~~~~~~~~~~~~~~~~~--|
|-(9)\5/7------------------------------5/7~~~~~~~~~~~~~~~~~~~~~~~~~~~~~~~~~~~--|
|-(7)\3/5~~~~~~~~~~~~~~~~~~~~~~~-------3/5~~~~~~~~~~~~~~~~~~~~~~~~~~~~~~~~~~~--|
_____       Time was never on my side_____ So on I wait my whole lifetime________


Chorus

Bridge:
|---------------------------------------------------------------------|
|---------------------------------------------------------------------|
|-7/9~~~~~~~~-7/9~~~~~~-----------\-7~--7-7-----7~-7-7---7~-7-7-------|
|-7/9~~~~~~~~-7/9~~~~~~-----------\-7~--7-7-----7~-7-7---7~-7-7-------|
|-5/7~~~~~~~~-5/7~~~~~~-----------\-5~--5-5-----5~-5-5---5~-5-5-------|
|-0~~~~~~~~~~-0~~~~~~~~-----------------------------------------------|
  Hear me - And if close my mind in fear	Please pry it open

|---------------------------------------------------------------------|
|---------------------------------------------------------------------|
|-7/9~~~~~~~~-7/9~~~~~~-----------\-7~--7-7-----4~-4-4---4~-4-4-------|
|-7/9~~~~~~~~-7/9~~~~~~-----------\-7~--7-7-----4~-4-4---4~-4-4-------|
|-5/7~~~~~~~~-5/7~~~~~~-----------\-5~--5-5-----2~-2-2---2~-2-2-------|
|-0~~~~~~~~~~-0~~~~~~~~-----------------------------------------------|
  See me  - And if my face becomes sincere	Beware

|---------------------------------------------------------------------|
|---------------------------------------------------------------------|
|-7/9~~~~~~~~-7/9~~~~~~-----------\-7~--7-7-----7~-7-7---7~-7-7-------|
|-7/9~~~~~~~~-7/9~~~~~~-----------\-7~--7-7-----7~-7-7---7~-7-7-------|
|-5/7~~~~~~~~-5/7~~~~~~-----------\-5~--5-5-----5~-5-5---5~-5-5-------|
|-0~~~~~~~~~~-0~~~~~~~~-----------------------------------------------|
  Hold me - And when I start to come undone     Stitch me together

|---------------------------------------------------------------------|-----------------|
|---------------------------------------------------------------------|-----------------|
|-7/9~~~~~~~~-7/9~~~~~~-----------\-7~--7-7-----7~-7-7---7~-7-7-------|-/9~~~~~~~~~~~~~~|
|-7/9~~~~~~~~-7/9~~~~~~-----------\-7~--7-7-----7~-7-7---7~-7-7-------|-/9~~~~~~~~~~~~~~|
|-5/7~~~~~~~~-5/7~~~~~~-----------\-5~--5-5-----5~-5-5---5~-5-5-------|-/7~~~~~~~~~~~~~~|
|-0~~~~~~~~~~-0~~~~~~~~-----------------------------------------------|--0--------------|
  Save me - And when you see me strut		Remind me of what left this outlaw torn 


Interlude:
|-------------------------------------------------------------------------------------|
|-------------------------------------------------------8-10b(12)-8-10b(12)-10b(12)~~-|
|-------0-3b(4)--0-----------0-3b(4)-0----------/9~~~~--------------------------------|
|-2~~~~------------2~~~\-2~~~----------2~~~~-\----------------------------------------|
|-------------------------------------------------------------------------------------|
|-------------------------------------------------------------------------------------|

|----------------------------------------------------------------------------------|
|--------8-10b(12)-8-10b(12)-10b(12)~~~--8-10b(12)-8-------8-10b(12)-8--10b(12)~~~-|
|-/9~~~~---------------------------------------------9-\-7-------------------------|
|----------------------------------------------------------------------------------|
|----------------------------------------------------------------------------------|
|----------------------------------------------------------------------------------|
|----------------------------------------------------------------------------------|

|------------------------------------------------------------------------------------------|
|------------------------------------------------------------------------------------------|
|------0-2~~-4-----------------0-2~~-4---------------------2-4-----4-2-------4-2--4-5~-7~~-|
|-2~~~---------0~-5-2~~~~--2~~~--------0~-5-2~~~~------0-0-----0-0-------------------------|
|--------------------------------------------------2~~----------------3b(5)r3--------------|
|------------------------------------------------------------------------------------------|
(In the Interlude and the first part of the outro you should use the volume-pedal or 
just the volume-controller at the first an the last note. You should do it to emphasize
the notes in the middle. Listen to the song and you know what I mean.)


Solo: with Wah 
====
The chorus-riff is played 4 times under the solo.
I know that the solo isn't perfectly figured out. But there so many effects
that solo is very difficult to figure out. I think there some notes that are 
right. 

 (D5)/E5        (D5)/E5         G5\F#5 B5    G5\F#5 B5    G5\F#5/G5 B5
|----------------------------------------------------------------------------|
|----------------------------------------------------------------------------|
|----------------------------------------------------------------------------|
|----------------------------------------------------------------------------|
|-(7)/9~-X-9--X----9--(7)/9~-X-9--X-9--12\11--------12\11---------11/12/11---|
|-(5)/7~-X-7--X----7--(5)/7~-X-7--X-7--10\9--12~-12-10\9--12~-12--9-/10/9----|
|-----0--X-0--X-(0)0---0--0--X-0--X-0--------10~-10-------10~-10----------10-|
|	 	 PM			    	  	  	             |
| (   Pick it as fast as you can     )					     |
|----------------------------------------------------------------------------|
|-12-12-12-12-12-12-12-12-12-12-12-12-12--12--12--12--12--12--12--12--12b~~~-|
|-12-12-12-12-12-12-12-12-12-12-12-12-11b-11b-11b-11b-11b-11b-11b-11b-12b~~~-|
|----------------------------------------------------------------------------|
|----------------------------------------------------------------------------|
|----------------------------------------------------------------------------|


 (D5)/E5        (D5)/E5         G5\F#5 B5    G5\F#5 B5    G5\F#5/G5 B5
|----------------------------------------------------------------------------|
|----------------------------------------------------------------------------|
|----------------------------------------------------------------------------|
|----------------------------------------------------------------------------|
|-(7)/9~-X-9--X----9--(7)/9~-X-9--X-9--12\11--------12\11---------11/12/11---|
|-(5)/7~-X-7--X----7--(5)/7~-X-7--X-7--10\9--12~-12-10\9--12~-12--9-/10/9----|
|-----0--X-0--X-(0)0---0--0--X-0--X-0--------10~-10-------10~-10----------10-|
|	 	 PM			    	  	  	             |
|									     |
|----------------------------------------------------------------------------|
|-15--15--15--15--15--15--15--15---------------------------------------------|
|-14b-14b-14b-14b-14b-14b-14b-14b---12-------12------------------------------|
|----------------------------------------14~-----14~--X-/14~-X-/14~-X-/14~---|
|----------------------------------------------------------------------------|
|----------------------------------------------------------------------------|

 (D5)/E5        (D5)/E5         G5\F#5 B5    G5\F#5 B5    G5\F#5/G5 B5
|----------------------------------------------------------------------------|
|----------------------------------------------------------------------------|
|----------------------------------------------------------------------------|
|----------------------------------------------------------------------------|
|-(7)/9~-X-9--X----9--(7)/9~-X-9--X-9--12\11--------12\11---------11/12/11---|
|-(5)/7~-X-7--X----7--(5)/7~-X-7--X-7--10\9--12~-12-10\9--12~-12--9-/10/9----|
|-----0--X-0--X-(0)0---0--0--X-0--X-0--------10~-10-------10~-10----------10-|
|	 	 PM			    	  	  	             |
|slide-echo-artificial-harmic-part: I'm tabbed it wrong ... If you don't like|
|my tab, just slide down in way						     |
|									     |
|-17\----<15>\---14\---<12>\------<10>\-----<9>\------<7>\-----x\-----0/22/--|
|----------------------------------------------------------------------------|
|----------------------------------------------------------------------------|
|----------------------------------------------------------------------------|
|----------------------------------------------------------------------------|
|----------------------------------------------------------------------------|

 (D5)/E5        (D5)/E5         G5\F#5 B5    G5\F#5 B5    G5\F#5/G5 B5
|----------------------------------------------------------------------------|
|----------------------------------------------------------------------------|
|----------------------------------------------------------------------------|
|----------------------------------------------------------------------------|
|-(7)/9~-X-9--X----9--(7)/9~-X-9--X-9--12\11--------12\11---------11/12/11---|
|-(5)/7~-X-7--X----7--(5)/7~-X-7--X-7--10\9--12~-12-10\9--12~-12--9-/10/9----|
|-----0--X-0--X-(0)0---0--0--X-0--X-0--------10~-10-------10~-10----------10-|
|	 	 PM			    	  	  	             |
|									     |
|--------------------------------/15~----/15~--/15-/15----/15-----/15-22b(24)|
|------------------------------------------------------17~----17~------------|
|-----12-14~~~-----12-14~~~--14~-----14~-------------------------------------|
|-/14-----------14-----------------------------------------------------------|
|----------------------------------------------------------------------------|
|----------------------------------------------------------------------------|
Bridge


Outro:
|    Use the volume-controller again     | the other Guitar just strum down the E5 			
|----------------------------------------|------------------------------------------------|
|----------------------------------------|------------------------------------------------|
|-------0-3b(4)-0--------0-3b(4)~~~~~~~~-|-------------------------------------0-2-4-2-0--|
|-2~~~~-----------2~~~~~-----------------|----2--2--2---2-4-5-4-0----2--2--2--------------|
|----------------------------------------|---2--2--2--2-------------2--2--2--2------------|
|----------------------------------------|--0--0--0--0-------------0--0--0--0-------------|


|--------------------------------------------------------------------------|
|--------------------------------------------------------------------------|
|--------------------------------------0-2-4-2-0h2p0-----------------------|
|---2--2--2---2-4-5-4-0-----2--2--2---------------------2-2-2---2-4-5-4-0--|
|--2--2--2--2--------------2--2--2--2------------------2-2-2-2-------------|
|-0--0--0--0--------------0--0--0--0------------------0-0-0-0--------------|

|----------------------------------------------------------------------|
|----------------------------------------------------------------------|
|------------0-2-4-2-0-------------------------------------------------|
|---2-2-2-----------------2-2-2---2-4-5-4-0-----2-2-2---2-2h5-2-2h7\5~-|
|--2-2-2-2---------------2-2-2-2---------------2-2-2-2-----------------|
|-0-0-0-0---------------0-0-0-0---------------0-0-0-0------------------|


| This part is played two times  |
|--------------------------------|
|--------------------------------|
|------------------------0-4-2-0-|
|-2~-2-2-2-5-2--2~-2-2-2---------|
|-2~------------2~---------------|
|-0~------------0~---------------|

|---------------------------------------------------8-----8---8-|
|----------8---------10-12-10-8~----------8---------8-----8---8-|
|-/9-9-9-9---9~--9-9--------------9-9-9-9---9~--9-9---9-9---9---|
|---------------------------------------------------------------|
|---------------------------------------------------------------|
|---------------------------------------------------------------|

|-------------------------------------------------------------|
|-------------------------------------------------------------|
|-------------------------------------------------------------|
|---2-2-2--2-4-5-4-0----2-2-2--5p4p2-5/7~---2-2-2--2-4-5-4-0--|
|--2-2-2-2-------------2-2-2-2-------------2-2-2-2------------|
|-0-0-0-0-------------0-0-0-0-------------0-0-0-0-------------|

|----------------------------------------------------------------------------|
|----------------------------------------------------------------------------|
|---------------------------------------------------------3b(4)r3-3b(4)r3-0~-|
|---2-2-2--5h7-5h7-5h7-5h7~----2-2-2--2-4-5-4-0----2-2-2---------------------|
|--2-2-2-2--------------------2-2-2-2-------------2-2-2-2--------------------|
|-0-0-0-0--------------------0-0-0-0-------------0-0-0-0---------------------|

|-------------------------------------------------------------------------|
|-------------------------------------------------------------------------|
|------------------------------5h7-555-4h5-444-7\5~------------0-2-4-2-0~-|
|---2-2-2--2-4-5-4-0----2-2-2--------------------------2-2-2--------------|
|--2-2-2-2-------------2-2-2-2------------------------2-2-2-2-------------|
|-0-0-0-0-------------0-0-0-0------------------------0-0-0-0--------------|

|        This part is played two times           |
|------------------------------------------------|
|-12-12~-----------------------------------------|
|-12-12~-9---------------------------------------|
|----------12p9----------------------------------|
|--------------12p10~--------10-12b(14)r12b(14)~-|
|----------------------12-12---------------------|

|------------------8-----10\8------------------8-XX-12-XX-12-12-|
|---------8--------8-----10\8----------8-------8-XX-12-XX-12-12-|
|-9-9-9-9---9~-999---999-------9-9-9-9---9~-9-9-----------------|
|---------------------------------------------------------------|
|---------------------------------------------------------------|
|---------------------------------------------------------------|

|--------------------------------|
|--------------------------------|
|--------------------------------| Fade out
|---2-2-2--2-4-5-4-0~----2-2-2---|
|--2-2-2-2--------------2-2-2-2--|
|-0-0-0-0--------------0-0-0-0---|
            
Submit corrections

comments powered by Disqus
↑ Back to top | Metallica Tabs for Outlaw Torn. Lyrics for acoustic guitar and electric guitar. Tablatures and chords are parodies/interpretations of the original songs. You may use it for private study, scholarship, research or language learning purposes only