» » »

Metallica, Outlaw Torn Tabs (ver.4)

Artists:  A B C D E F G H I J K L M N O P Q R S T U V W X Y Z # 

Outlaw Torn Tabs (ver.4)

Metallica Tabs
Rating:
0/5 (0 votes)
Hard to play? Try these video lessons and learn fast.
                The Outlaw Torn

intro w/ wah
|-0-----------------------0------------------------------------------------|
|-0-----------------------0------------------------------------------------|
|-2-----------------------2------------------------------------------------|
|-3-2--2-2--2-2--2-2-2-2--3-2--2-2--2-2--2-2-2-2---------------------------|
|-3-2--2-2--2-2--2-2-2-2--3-2--2-2--2-2--2-2-2-2---------------------------|
|-1-0--0-0--0-0--0-0-0-0--1-0--0-0--0-0--0-0-0-0---------------------------|
  fade in                 repeat

ryth fig. 1^^^^^^^^^^^^^^^^^^^^^^^^^^^^^^^^^^^^^^^^^^^^^^^^^^^^^^^^^^^^^^^^^
|--------------------------------|-----------------------------------------|
|--------------------------------|-----------------------------------------|
|--------------------------------|-----------------------------------------|
|--------------------------------|-5-4---------5-4-------4-5-4-------------|
|-5-7---7---5-7---5-7---5-7---7--|-5---5-5-----5---5---5-5-----5-----------|
|-0-0-0-0-0-0-0-0-0-0-0-0-0-0-0--|-----------------------------------------|
repeat

fill 1
|---sl.-up-------sl. down--------------------------------------------------|
|--------------------------------------------------------------------------|
|-7-/-9------(9)-\---------------------------------------------------------|
|-7-/-9------(9)-\---------------------------------------------------------|
|-5-/-7------(7)-\---------------------------------------------------------|
|-0----------(0)-\---------------------------------------------------------|
                 big slide w/1sec deley setting

Verses (vocals with lower 4th harmony)

Bass riff fig. 1^^^^^^^^^^^^^^^^^^^^^^^^^^^^^^^^^^^^^^^^^^^^^^^^^^^^^^^^^^^^
|----sl. up--sl. down-----------|------------------------------------------|
|*-----------------------------*|------------------------------------------|
|*-------7---------------------*|--------7---------------------------------|
|-0--/7-----7\--0---3---4-5-4-3-|-0--/7-----7\--3-2-0---3-2-0-2-0----------|
play 3x                          4th time

play ryth fig. 1 w/ fill 1

then play bass riff fig. 1

then ryth fig. 1 and so on and so on

then go back to the intro just with bass w/flanger
if your reaally cool you can improvise with volume swell and these notes
|---------------------|
|---------------------|
|----------------4----|
|----------4-5-7------|
|--2-3-5-7------------|
|---------------------|
use this togeather with bass

now the solo, I'm no kirk Hammett so I just pass

I think the rest of the song just uses the rest of the rythym(is that how
you spell it?) sections over and over again

there is a lot more to this song, but I cant do it now. I'm tabbing
this from memory, because my sister lost the CD.

I hardly ever have the same server for more than a month, so don't bother

Joe Ravida  

  [ Part 3: "Attached Text" ]
            

comments powered by Disqus
↑ Back to top | Metallica Tabs for Outlaw Torn. Lyrics for acoustic guitar and electric guitar. Tablatures and chords are parodies/interpretations of the original songs. You may use it for private study, scholarship, research or language learning purposes only