» » »

Some Kind Of Monster Tabs (ver.1)

Artists:  A B C D E F G H I J K L M N O P Q R S T U V W X Y Z # 

Some Kind Of Monster Tabs (ver.1)

Metallica
Rating:
0/5 (0 votes)

Hard to play? Try these video lessons and learn fast.
                
       P-Pull off
       H-Hammer on
       \-Slide down
       /-Slide up
       v-Vibrato
       b-bend
The tuning is Drop D, tuned 1 more whole step down(CGCFAD).You'll have to listen to the song to 
hear how to place everything.Timing isn't exact, but I tried getting it close.Listen to the song 

to get it exact.

Intro
Play this twice a with clean tone:
|----------------|---------------|---------------| 
|----------------|---------------|---------------| 
|----------------|---------------|---------------|
|----------------|---------------|---------------|
|----------------|---------------|---------------|
|-0-0-3-5-0------|-0-3-5-0-------|-0-3-5-0-3-5---|   
PM---------       PM--------       PM----------                      

|----------------|---------------|---------------|  
|----------------|---------------|---------------|
|----------------|---------------|---------------|
|----------------|---------------|---------------|
|----------------|---------------|---------------|
|-0-0-0-3-5-0----|-0-3-5-0-------|-0-3-5-0-------|
PM-----------    PM--------      PM--------------

Basically the intro only heavily distorted:
|----------------|---------------|---------------| 
|----------------|---------------|---------------| 
|----------------|---------------|---------------|
|----------------|---------------|---------------|
|----------------|---------------|---------------|
|-0-0-3-5-0------|-0-3-5-0-------|-0-3-5-0-3-5---|  

|----------------|---------------|---------------| 
|----------------|---------------|---------------|
|----------------|---------------|---------------|
|----------------|---------------|---------------|
|----------------|---------------|---------------|
|-0-0-0-3-5-0----|-0-3-5-0-------|-0-3-5-0-------|

|----------------|---------------|---------------|
|----------------|---------------|---------------|
|----------------|---------------|---------------|
|----------------|---------------|---------------|
|-3-3-3-5-0------|-3-3-3-5-0-----|-3-3-3-5-0-----|
|-3-3-3-5-0------|-3-3-3-5-0-----|-3-3-3-5-0-----|

James plays this with some effect:
|----------------|             |----------------|
|----------------|             |----------------|
|-------12-------|             |-------12-12b---|
|-12-15----12----|



Back to verse, then chorus 1, verse, Chorus 2 then:
|----------------|---------------|
|----------------|---------------|
|----------------|---------------|
|----------------|---------------|
|----------------|---------------|
|-0-0-12-0-12-12-|0--------------|

|----------------|---------------|
|----------------|---------------|
|----------------|---------------|
|-------3--------|-------3-------|<---6x
|----------------|---------------|
|-0-2/3---0001---|-0-2/3---000111|

Play this when James is singing the stuff like 
"This is the Cloud that swallows trust"
|----------------|
|----------------|
|----------------|
|----------------|
|----------------|
|-3-5-5-3-5-5----|

I don't know what to play when the guys are chanting "Ominous I'm in us".

This is the ending riff that I think is hilarious:
|-12h17-12h17----|-1212-12h17----|-12h17-12------|
|-12h17-12h17----|-1212-12h17----|-12h17-12------|
|----------------|---------------|---------------|<-2x
|----------------|---------------|---------------|
|----------------|---------------|---------------|
|----------------|---------------|---------------|

That's it, listen to the song to figure out the whole placement, 
what a way to end such a heavy song eh?If you know the riff to 
            
Hard to play? Try these video lessons and learn fast. | Correct




comments powered by Disqus
↑ Back to top | Tablatures and chords are parodies/interpretations of the original songs. You may use it for private study, scholarship, research or language learning purposes only