» » »

Metallica, Slither Tabs (ver.1)

Artists:  A B C D E F G H I J K L M N O P Q R S T U V W X Y Z # 

Slither Tabs (ver.1)

Metallica Tabs
 Rating:
4/5 (4 votes)
Slither lessons Tabs too difficult? Try these video lessons and learn fast
1
                

Intro
|---------------------------------------------------------------------
|---------------------------------------------------------------------
|---4-3-2--x-x-x-x------------------7-6-5---------------4-3-2--2--2---
|---4-3-2--x-x-x-x--7-6-5--x-x-x-x--7-6-5---------------4-3-2--2--2---
|---2-1-0--x-x-x-x--7-6-5--x-x-x-x--5-4-3--3-0-3-0-3-0--2-1-0--0--0---
|-------------------5-4-3--x-x-x-x------------------------------------
|
|Guitar II
|---------------------------------------------------------------------
|---------------------------------------------------------------------
|---4-3-2---------------------------7-6-5---------------4-3-2--2--2---
|---4-3-2-----------7-6-5-----------7-6-5---------------4-3-2--2--2---
|---2-1-0-----------7-6-5-----------5-4-3---------------2-1-0--0--0---
|-------------------5-4-3---------------------------------------------



Guitar I
|----------------------------------------------------------------------
|----------------------------------------------------------------------
|----------------------------------------------------------------------
|---------5--7-----------5--7-----------5--7-----------5--8-----5------
|---7-/7-----------7-/7-----------7-/7-----------7-/7-----8-----5------
|---0--0--------0--0--0--------0--0--0--------0--0--0-----6--0--3--0---
|	      p.m.           p.m.           p.m.            p.m.  sim. 
|
|Guitar II
|----------------------------------------------------------------------
|----------------------------------------------------------------------
|----------------------------------------------------------------------
|------------------------------2--------------------------9--8--7------
|------------------------------2--------------------------9--8--7------
|------------------------------0--------------------------7--6--5--0---


Guitar I
Riff A
|----------------------------------------------------------------------
|----------------------------------------------------------------------
|----------------------------------------------------------------------
|---------5--7-----------5--7-----------5--7-----------5--8-----5------
|---7-/7-----------7-/7-----------7-/7-----------7-/7-----8-----5------
|---0--0--------0--0--0--------0--0--0--------0--0--0-----6--0--3--0---
|
|Guitar II
|----------------------------------------------------------------------
|----------------------------------------------------------------------
|----------------------------------------------------------------------
|---------5--7-----------5--7-----------5--7-----------5--9--8--7------
|---7-/7-----------7-/7-----------7-/7-----------7-/7-----9--8--7------
|---0--0--------0--0--0--------0--0--0--------0--0--0-----7--6--5--0---


Guitar I
"Ohhh, watch the puppets dancin' ....."
Riff B
|---------------------------------------------------------------------------
------------------
|---------------------------------------------------------------------------
------------------
|---------------------------------------------------------------------------
------------------
|---2---5-----7--8--5--8--2---5------7--8--5--8--2---5------7--8--5--8--2---
5---8---5--4--2---
|---2---5-----7--8--5--8--2---5------7--8--5--8--2---5------7--8--5--8--2---
5---8---5--4--2---
|---0---3--0--5--6--3--6--0---3---0--5--6--3--6--0---3---0--5--6--3--6--0---
3-0-6---3--2--0---
|
|
|Guitar II
|---------------------------------------------------------------------------
------------------
|---------------------------------------------------------------------------
------------------
|---------------------------------------------------------------------------
------------------
|---2---5-----------------2---5------------------2---5------------------2---
5---8---5--4--2---
|---2---5-----------------2---5------------------2---5------------------2---
5---8---5--4--2---
|---0---3--0--5--6--3--6--0---3---0--5--6--3--6--0---3---0--5--6--3--6--0---
3-0-6---3--2--0---


Guitar I
"See you crawlin'......"
Riff C
|----------------------------------------------------------
|----------------------------------------------------------
|----------------------------------------------------------
|-----3--x-x------3--x--x------3--x-x------3--x--x---------
|-----3--x-x------3--x--x------3--x-x------3--x--x---------
|---0-1--x-x--x-0-1--x--x--x-0-1--x-x--x-0-1--x--x--0--0---
|
|Guitar II
|----------------------------------------------------------
|----------------------------------------------------------
|----------------------------------------------------------
|-----3-----------3------------3-----------3---------------
|-----3-----------3------------3-----------3---------------
|---0-1---------0-1----------0-1---------0-1--------0--0---



Guitar I
|--------------------------------------------------------------
|--------------------------------------------------------------
|--------------------------------------------------------------
|-----3--x-x------3--x--x------3--x-x------3--x--x-------------
|-----3--x-x------3--x--x------3--x-x------3--x--x-------------
|---0-1--x-x--x-0-1--x--x--x-0-1--x-x--x-0-1--x--x--0--0---0---
|
|Guitar II
|Tremolo picking.............................
|--------------------------------------------------------------
|---5-----------6------------8------------10-------------------
|--------------------------------------------------------------
|--------------------------------------------------------------
|--------------------------------------------------------------
|--------------------------------------------------------------


Guitar I
"Don't go looking for snakes you......"
Riff D
|-------------------------------------------------
|-------------------------------------------------
|---4-3-2-2-2-2-2-2-2-2-2-------------------------
|---4-3-2-2-2-2-2-2-2-2-2-7-6-5-5-5-5-5-5-5-5-5---
|---2-1-0-0-0-0-0-0-0-0-0-7-6-5-5-5-5-5-5-5-5-5---
|-------------------------5-4-3-3-3-3-3-3-3-3-3---
|
|Guitar II
|-------------------------------------------------
|-------------------------------------------------
|---4-3-2-2-2-2-2-2-2-2-2-------------------------
|---4-3-2-2-2-2-2-2-2-2-2-7-6-5-5-5-5-5-5-5-5-5---
|---2-1-0-0-0-0-0-0-0-0-0-7-6-5-5-5-5-5-5-5-5-5---
|-------------------------5-4-3-3-3-3-3-3-3-3-3---


Guitar I
   "haven't i seen you.."         "there ain't no..."
|-----------------------------------------------------
|-----------------------------------------------------
|---7-6-5-5-5-5-4-3-2-------2-------2--4-3-2--4-2-----
|---7-6-5-5-5-5-4-3-2-------2-------2--4-3-2--4-2-----
|---5-4-3-3-3-3-2-1-0--0-0--0--0-0--0--2-1-0--2-0-----
|-------------------------------------------------0---
|
|Guitar II
|-----------------------------------------------------
|-----------------------------------------------------
|---7-6-5-5-5-5-4-3-2-------2-------2--4-3-2--4-2-----
|---7-6-5-5-5-5-4-3-2-------2-------2--4-3-2--4-2-----
|---5-4-3-3-3-3-2-1-0--0-0--0--0-0--0--2-1-0--2-0-----
|-------------------------------------------------0---


Bridge

Guitar I
Riff E
|---------------------------------------------------------------------------
--|
|---------------------------------------------------------------------------
--|
|*--------------------------------------------------------------------------
-*|
|*--------5--7B--5---------------5--7B--5--------------5--7B--5--8-----5----
-*|
|-----/7------------7--------/7------------7-------/7------------8-----5----
--|
|---0------------------0--0-------------------0--0---------------6--0--3--0-
--|
|
|Guitar II
|---------------------------------------------------------------------------
--|
|---------------------------------------------------------------------------
--|
|*--------------------------------------------------------------------------
-*|
|*--------5--7B--5---------------5--7B--5--------------5--7B--5-------------
-*|
|-----/7------------7--------/7------------7-------/7------------7----------
--|
|---0------------------0--0-------------------0--0------------------0--0--0-
--|


Solo:
Play this a whole bunch of times
|----------------------------|
|----------------------------|
|*--2--2--2--2--2--2--2--2--*|
|*--2--2--2--2--2--2--2--2--*|
|---0--0--0--0--0--0--0--0---|
|----------------------------|

then play riff Riff B a couple of times.

Outro Solo:

Guitar I
|----------------------------------------------------------
|----------------------------------------------------------
|----------------------------------------------------------
|---------5--7-----------5--7-----------5--7-----------5---
|---7-/7-----------7-/7-----------7-/7-----------7-/7------
|---0--0--------0--0--0--------0--0--0--------0--0--0------


Guitar I
Riff F
|-------------------------------------------------
|-------------------------------------------------
|---5-5-5-5-4-3-2-------2-------2--4-3-2--4-2-----
|---5-5-5-5-4-3-2-------2-------2--4-3-2--4-2-----
|---3-3-3-3-2-1-0--0-0--0--0-0--0--2-1-0--2-0-----
|---------------------------------------------0---
            
Submit corrections

comments powered by Disqus
↑ Back to top | Metallica Tabs for Slither. Lyrics for acoustic guitar and electric guitar. 1 Tablatures and chords are parodies/interpretations of the original songs. You may use it for private study, scholarship, research or language learning purposes only