» » »

Metallica, Saint Anger Tabs (ver.3)

Artists:  A B C D E F G H I J K L M N O P Q R S T U V W X Y Z # 

Saint Anger Tabs (ver.3)

Metallica Tabs
 Rating:
4/5 (4 votes)
Saint Anger lessons Tabs too difficult? Try these video lessons and learn fast
1
                Guitar Tuning = C# G# C# Gb Bb Eb

Opening Riff - low Gain (RIFF 1)

|-----------------------------------	
|-----------------------------------
|-----------------------------------
|-----------------------------------
|---------------2222----------------
|xxxx-1-x-1-xxxx--------------------

a second silence then this - More Gain (RIFF 2)

|-----------------------------------
|-----------------------------------
|-----------------------------------
|xxxx-1-x-1-xxxx-2222---------------
|xxxx-1-x-1-xxxx-2222---------------
|xxxx 1-x-1-xxxx--------------------

Then this comes in - full Gain (RIFF 3/4)

|--------------------------|---------------
|--------------------------|---------------
|--------------------------|---------------
|--------------------------|---------------
|--------------------------|---------------
|3-1-0-2-1-0-3-1-0-2-1-0---|3-1-0---2-1-0-- (x3) then back to riff 3

a second silence then... (RIFF 5)

|-----------------------------------	
|-----------------------------------
|-----------------------------------
|3-1-0-2-1-0-1-0-0 --2222-----------
|3-1-0-2-1-0-1-0-0 --2222-----------
|3-1-0-2-1-0 1 0 0------------------ (x4)

 ** Back to riff 1 (x4) then riff 3 (played once)

VERSE (RIFF 6)

|-------------------------------------	
|--------------------2----------------
|-----6------6------------6-----------
|--- 6------4-----2-------------------
|--4------2-----0--------6------------
|-------------------- -6--------------(X4)

PRE CHORUS (St Anger....You Flush It Out) (RIFF 7)
Guitar 1             Guitar 2
|-------------------|------------------------------------------------	
|-------------------|--------------1212121212121210101010101099999999
|-------------------|66666666666666----------------------------------
|-6---4---2---6-----|----------------
|-4---2---0---6-----|----------------
|-------------6-----|----------------(x4, same riff applies to chorus)

Then this break...(RIFF 8)
      PM  PM
|----------------------------
|----------------------------
|----------------------------
|-6---66--66--4--2--6------------
|-4---44--44--2--0--6------------
|-------------------6------------

CHORUS (F&#k it all..., same riff as PRE CHORUS)
Back to Riff 1 then 2 but this plus this, AFTER riff 2 is played 4 times

This riff accompanies RIFF 2 Joins in one bar into RIFF 2 (RIFF 9)

|----------|----------------|--------	
|----------|----------------|--------
|----------|----------------|--------
|1--1--1---|--1--1----------|1--1--1-
|1--1--1---|--1--1----------|1--1--1-
|1--1 -1---|--1--1------(x4)|1--1--1- (Riff 2 is continuesly played
                                       along side this riff)
     THEN......
Into RIFF 5
Into RIFF 2
Into RIFF 4 (once)
Into CHORUS
Into RIFF 8
Into RIFF 2 plus power chord on 1st fret top 3 strings
END

Their u hav it any adjusts u think need to b made...send
to mail avaliable above
            
Submit corrections

comments powered by Disqus
↑ Back to top | Metallica Tabs for Saint Anger. Lyrics for acoustic guitar and electric guitar. 1 Tablatures and chords are parodies/interpretations of the original songs. You may use it for private study, scholarship, research or language learning purposes only