» » »

Metallica, Purify Tabs (ver.2)

Artists:  A B C D E F G H I J K L M N O P Q R S T U V W X Y Z # 

Purify Tabs (ver.2)

Metallica Tabs
Rating:
0/5 (0 votes)
Purify lessons Tabs too difficult? Try these video lessons and learn fast
                
Tuning: 2 Steps Down  (C F A# D G C)


INTRO
|-------------------------------|     |---------------------------------|
|-------------------------------|     |---------------------------------|
|-2-2-5-2-5-5-2-5---5-2-5/7-7-2-|     |-5-2-----5-2-----5-2-----5-2-----|
|-0-0-3-0-3-3-0-3---3-0-3/5-5-0-|     |-3-0-----3-0-----3-0-----3-0-----|
  . .   .     .       .                 


VERSE
|---------------------------------------|
|---------------------------------------|
|---7-8-9-9-2----------7-8-9-9-2--------|
|-0-5-6-7-7-0--------0-5-6-7-7-0--------|
  . . . .            . . . .


CHORUS
|-----------------------------------------------------------------|
|-9-9-9-9-9-9-9-9-8-8-8-8-8-8-8-8-7-7-7-7-7-7-7-7-8-8-8-8-8-8-8-8-|
|-9-9-9-9-9-9-9-9-8-8-8-8-8-8-8-8-7-7-7-7-7-7-7-7-8-8-8-8-8-8-8-8-|
|-7-7-7-7-7-7-7-7-6-6-6-6-6-6-6-6-5-5-5-5-5-5-5-5-6-6-6-6-6-6-6-6-|



(Purify, You And I...)
|-----------------------------------------------------|     |-----------------| 
|-44444---------44444---------44444---------44444-----|     |-----------------| 4x
|-22222p0-------22222p0-------22222p0-------22222p0---|     |-0-3-3-0-3-3-0-3-|
                                                              . . . . . . . .



GROVE RIFF
|-------------------------------------------|
|-------------------------------------------|
|-----12---12-12---12---12---12---12/15~~~--|
|-0-0-10-0-10-10-0-10---10-0-10-0-10/13~~~--|
  . .


(I Can See The Dirt...)
|-------------------------------------------------------------|
|---------------------7---------------------------------------|
|-9--9--9--9--5---5---5-----5/7--2---2-----12---12---12/15~~~-|
|-7--7--7--7--3---3---------3/5--0---0-----10-0-10-0-10/13~~~-|



|----------------------------------|
|----------------------------------|
|-5--x-5/7-2-------5--x-5/7-2------|
|-3--x-3/5-0-------3--x-3/5-0------|



OUTRO
|-------------------------|    |-7--7--7-----------------|
|-------------------------| 4x |-5--5--5-----------------|
|-------5-----7-----------|    |-------------7-----------|
|-0--5-----------0--0--0--|    |----------------0--0--0--|
                 .  .  .                        .  .  .
            
Submit corrections

comments powered by Disqus
↑ Back to top | Metallica Tabs for Purify. Lyrics for acoustic guitar and electric guitar. Tablatures and chords are parodies/interpretations of the original songs. You may use it for private study, scholarship, research or language learning purposes only