» » »

Orion Tabs (ver.1)

Artists:  A B C D E F G H I J K L M N O P Q R S T U V W X Y Z # 

Orion Tabs (ver.1)

Metallica
Rating:
0/5 (0 votes)

Hard to play? Try these video lessons and learn fast.
                This is the bass solo for Orion.  This is not correct for bass.  This is only
arranged for guitar.  On the bass, you play the same notes, only they are an octave
higher, so it would be starting on 9 on the A string.
Tuning: E B G D A E

E---------------------------------------|
B---------------------------------------|
G---------------------------------------|
D---------4-----2---------2-------2-----|
A------4-----0-----0---2-----2----------|
E---2---------------------------0---0---|

E------------------------------------|
B------------------------------------|
G------------------------------------|
D---------4-----2---------2----------|
A------4-----0-----0---2-----2-------|
E---2---------------------------0----|

E----------------------------------------|
B----------------------------------------|
G----------------------------------------|
D---------4-----2---------2-------2------|
A------4-----0-----0---2-----2-----------|
E---2--------------------------0-----0---|

E--------------------------------------------------------------|
B--------------------------------------------------------------|
G--------------------------------------------------------------|
D---------4-----2---------2-----2-2-2-2-2-2-2--0---------------|
A------4-----0-----0---2-----2--------------------4--2---------|
E---2---------------------------------------------------5---3--|


I guess after that you just keep repeating it.  I don’t have time to figure it out
because I play guitar!  HA!  by the way, you have to be genius to invent a song like
this.
            
Hard to play? Try these video lessons and learn fast. | Correct




comments powered by Disqus
↑ Back to top | Tablatures and chords are parodies/interpretations of the original songs. You may use it for private study, scholarship, research or language learning purposes only