» » »

Metallica, Mexico City Tabs (ver.2)

Artists:  A B C D E F G H I J K L M N O P Q R S T U V W X Y Z # 

Mexico City Tabs (ver.2)

Metallica Tabs
 Rating:
4/5 (4 votes)
Mexico City lessons Tabs too difficult? Try these video lessons and learn fast
                (Riff)

Slide Up: /
Slide Down: \
Vibrato: ~~~
Bend: b(xx) -bend up to fret indicated-
Release bend: (r)
Harmonic: [xx]
Pinch Harmonic: *xx
Hammer On:  h
Pull Off:  p
Palm Mute: xxpm
Trem Bar dips:  v v v 

[---------------------------play 2 X--------------------------]
e|--------------------------------------------------------------|
b|--------------------------------------------------------------|
g|--------------------------------------------------------------|
d|--------------------------------------------------------------|
a|--------------------------------------------------------------|
E|----(0)~~~~-------h7~~~~------7-p-5-p-0~~~-----(0)---v--v--v--|


e|------------------------------------------------------------------|
b|------------------------------------------------------------------|
g|------------------------------------------------------------------|
d|-----------------/9---7---5---4---------------------8pm-----------|
a|--/7-----7---7\-------------------5----5~~--6------------6--6--6--|
E|------------------------------------------------------------------|


e|----------------------------------------------------------------------------|
b|----------------------------------------------------------------------------|
g|----------------------------------------------------------------------------|
d|-----------------/9---7---5---4---/12--12~~---12b(14)r--12b(14)r--12--12\---|
a|--/7-----7---7\-------------------------------------------------------------|
E|----------------------------------------------------------------------------|


e|------------------------------------------------------------------|
b|------------------------------------------------------------------|
g|------------------------------------------------------------------|
d|-----------------/9---7---5---4---------------------*8------------|
a|--/7-----7---7\-------------------5----5~~--6------------6--6--6--|
E|------------------------------------------------------------------|


e|----------------------------------------------------------------------------|
b|----------------------------------------------------------------------------|
g|----------------------------------------------------------------------------|
d|-----------------/9---7---5---4---/12--12~~---12b(14)r--12b(14)r--12--12\---|
a|--/7-----7---7\-------------------------------------------------------------|
E|----------------------------------------------------------------------------|

                                 vib. w/bar
e|---------------------0~~~~~~~--------------------|
b|---------------------0~~~~~~~--------------------|
g|---------------1---------------------------------|
d|-----------2-------------------------------------|
a|-------2-----------------------------------------|
E|---0---------------------------------------------|
            
Submit corrections

comments powered by Disqus
↑ Back to top | Metallica Tabs for Mexico City. Lyrics for acoustic guitar and electric guitar. Tablatures and chords are parodies/interpretations of the original songs. You may use it for private study, scholarship, research or language learning purposes only