>
 >
Mama Said 2

Mama Said 2 Guitar Tabs

Metallica - Mama Said 2 chords, tabs, tablatures, lyrics

Guitar lessons | Add/correct | Request | Top 50 tabs Artists:  A B C D E F G H I J K L M N O P Q R S T U V W X Y Z 0-9

Mama Said 2 Guitar Tabs – Metallica

CD, Sheet music, Poster

Do you like Mama Said 2? Share with your friends now
ChordsTabsTabs v2Tabs v3
This is the way how I play this song
I guess , I`m sure, this is the best version on internet
But I have to say that the intro I play a little bit different,but 
it doesn`t matter:-)
Anyway I didn`t figure it out and author`s name is in the title

Pavel Holka 


                                  * Mama Said *
                          Metallica - from album "Load"
                Words and music by James Hetfield and Lars Ulrich


     
     This is the right way, but I haven't figured it all out yet.
     Missing some solo parts and the chorus solo...
     Please mail me any comments/corrections...


     * Acoustic guitar - Intro/Verse Riff

    Dm                           Ds4                                  

Eb|-1--------1---0---1-----------3----3---1---1---1-------1-----------
|
Bb|-3------------3---3-----------3----3---3---3---3-------3-----------
|
Gb|-2------------2-----------2---2----2---2---2---2-------------------
|
Db|-0--------------------0--------------------------------------------
|
Ab|---------------------------------------------------0---------------
|
Eb|-------------------------------------------------------------------
|

    C                 Am                As2 As4                       
                   H                                                  
   
  
Eb|-------------------------------------0---0---x---x-----------------
|
Bb|-1----1---13--x---1----1---1---1----0---1---x---x-----------------
|
Gb|-0----0---0----x---2----2---2---2----2---2---x---x-----------------
|
Db|-2----2---2----x---2----2---2---2----2---2-------------------------
|
Ab|-3----3---3--------0-----------------------------------------------
|
Eb|-------------------------------------------------------------------
|
                                                                   

     
Eb|-1----1---1---0---1-----------3----3---1---1---1-------------------
|
Bb|-3------------3---3-----------3----3---3---3---3-------------------
|
Gb|-2------------2-----------2---2----2---2---2---2-------------------
|
Db|-0--------------------0--------------------------------------------
|
Ab|----------------------------------------------------0--------------
|
Eb|-------------------------------------------------------------------
|
        
               H                                                      
Eb|--------------------0--------0---0----0---0------------------------
|
Bb|--1----1---13--x---1--------1---1----1---3------------------------
|
Gb|--0----0---0----x---2--------2---2----2---2-------0----------------
|
Db|--2----2---2----x---2----------------------------------------------
|
Ab|--3----3---3--------0----------------------------------------------
|
Eb|-------------------------------------------------------------------
|

                
     * Chorus - Acoustic over clean electric (Haven't figured it out  
   
                                                            yet.)
                                                     

    Dm  Ca9 Am    G     Dm  Ca9  Bb    G  Am         As2      As4     
     
Eb|-1---3---0-----3---|-1---3----------3--0----------0--------0-------
|
Bb|-3---0---1-----3---|-3---0----3-----3--1----------0--------3-------
|
Gb|-2---0---2-----0---|-2---0----3-----0--2----------2--------2-------
|
Db|-0---2---2-----0---|-0---2----3-----0--2----------2--------2-------
|
Ab|-----3---0-----2---|-----3----1-----2--0----------0--------0-------
|
Eb|---------------3---|----------------3------------------------------
|
    Let my  heart go    Let this heart be still..
                                                                      
   
  

     * Before and Verse 2 - Electric w/wah (Included some lyrics to 
help)

           P  P         H  P                                     P    
Eb|------13126--|-----------------------------------------------------------
|
Gb|--7----|-----------------------19^(21)^19----------19^(21)^19------
|
Db|-------|---------------19------------------19----------------------
|
Ab|-------|-----------------------------------------------------------
|
Eb|-------|-----------------------------------------------------------
|
    Rebel..   in my veins..
                                                                      
   
  
                                            H            B          
Eb|-------17------------------------------------|-17-----------|------
|
Bb|-------------------20-------17---17----1718-|------15^(17)-|--15--
|
Gb|---19----------19-------19-------------1719-|--------------|--14--
|
Db|---------------------------------------------|--------------|------
|
Ab|---------------------------------------------|--------------|------
|
Eb|---------------------------------------------|--------------|------
|
   remains..                              left.. wrong..        never


     * Bridge - Acoustic
         
    Dm    G   Ca9   F                                                 
                                     B                           H 
Eb|-1-----3---3-----1----|-------1-----------|-----0----------0-------
|
Bb|-3-----3---0-----1----|----------3^(5)--3-|-------3----------13---
|
Gb|-2-----0---0-----2----|----2--------------|---0------0-------------
|
Db|-0-----0---2-----3----|-0-----------------|--------------2---------
|
Ab|-------2---3-----3----|-------------------|-2----------3-----------
|
Eb|-------3---------1----|-------------------|----------------------1-
|
    Never ask never gave.  Fill during bridge. (let ring)
                                                                      
   
  
     
     * Verse 2 - Electric w/wah (Included some lyrics to help)

           H                                                        
Eb|----5-------------------|----------------5---5-5-0-5---------------
|
Bb|-------35-6----6-------|--------------------------------3---------
|
Gb|----------------7-------|--------2--2------2-------------2---------
|
Db|------------------------|------------------------------------------
|
Ab|------------------------|------------------------------------------
|
Eb|------------------------|------------------------------------------
|
   me..        A  mothers..  me be..                Yeah I took
                                                           
     
Eb|-------------5--------------------0--------------------------------
|
Bb|------------------------5--5--6------------------------------------
|
Gb|---------7--------7--7-----------------------7---------------------
|
Db|-------------------------------------------------------------------
|
Ab|-------------------------------------------------------------------
|
Eb|-------------------------------------------------------------------
|
   to me..        yeah        I  need  your arms     to welcome me.
                                                                      
   
  
     
     * Distorted riff played under "Let my heart go..." at the end

     
Eb|-------------------------|-----------------------------------------
|
Bb|-------------------------|-----------------------------------------
|
Gb|-7-----5--------------7--|--7-----5-----3-----------------------7--
|
Db|-7-----5-----7--------5--|--7-----5-----3-----5-----7-----------7--
|
Ab|-5-----3-----7--------5--|--5-----3-----1-----5-----7-----------5--
|
Eb|-------------5-----------|--------------------3-----5--------------
|
        This 3 times..             then this..





Comments


Popular Metallica tabs & chords
I Disappear Bass Tabs
Jump In The Fire Bass Tabs
Creeping Death 2 Chords
Fuel Drum Tabs
Bleeding Me Tabs
Dyers Eve 1 Tabs
Nothing Else Matters Live Tabs
Shoot Me Again Tabs
The Call Of The Ktulu 1 Tabs
Frantic Ukulele


Song lyrics



↑ Back to top | Tablatures and chords are parodies/interpretations of the original songs. You may use it for private study, scholarship, research or language learning purposes only
© 2014 AZChords.com Contact us | Privacy policy | DMCA | Add/correct tabs | Request tabs | Top 50 tabs