» » »

Loverman Tabs (ver.2)

Artists:  A B C D E F G H I J K L M N O P Q R S T U V W X Y Z # 

Loverman Tabs (ver.2)

Metallica
Rating:
0/5 (0 votes)

Hard to play? Try these video lessons and learn fast.
                

INTRO/VERSE RIFF: - Clean with reverb and/or delay.
-----------------
      Cm  Fm  Gm
eb|---3---1---3---|
Bb|---4---1---3---|
Gb|---5---1---3---|
Db|---5---3---5---|
Ab|---------------|
Eb|---------------|


CHORUS: - Distorted with wah-wah.
-------
     C5  F5  G5
eb|--------------|
Bb|--------------|
Gb|--5---10--12--|
Db|--5---10--12--|
Ab|--3---8---10--|
Eb|--------------|


BRIDGE: - Clean with reverb and/or delay.
-------

eb|--3----------1-3--1--3h4p3-1---------------1-3--1--|
Bb|-------1-3-4-----------------4-3-1---1-3-4---------|
Gb|-----------------------------------3---------------|
Db|---------------------------------------------------|
Ab|---------------------------------------------------|
Eb|---------------------------------------------------|
            
Hard to play? Try these video lessons and learn fast. | Correct




comments powered by Disqus
↑ Back to top | Tablatures and chords are parodies/interpretations of the original songs. You may use it for private study, scholarship, research or language learning purposes only