>
 >
Leper Messiah 2

Leper Messiah 2 Guitar Tabs

Metallica - Leper Messiah 2 chords, tabs, tablatures, lyrics

Guitar lessons | Add/correct | Request | Top 50 tabs Artists:  A B C D E F G H I J K L M N O P Q R S T U V W X Y Z 0-9

Leper Messiah 2 Guitar Tabs – Metallica

CD, Sheet music, Poster

Do you like Leper Messiah 2? Share with your friends now
TabsTabs v2Tabs v3
Gtr I (E A D G B E) - 'Hetfield'
Gtr II (E A D G B E) - 'Hammett'

Intro
  Moderate Rock Q=136
         
 Gtrs I, II
          
|-------------|--------------|--------------|-------------|---------------|
|-------------|--------------|--------------|-------------|---------------|
|-------------|--------------|--------------|-------------|---------------|
|-------------|-5------5--7--|-(7)----------|-5------5----|-(5)-----------|
|-------------|-5------5--7--|-(7)----------|-5------5----|-(5)-----------|
|---------0-0-|-3--0-0-3--5--|-(5)------0-0-|-3--0-0-3----|-(3)------0-0--|


                                               3/4

|--------------|--------------|---------------|---------------||
|--------------|--------------|---------------|---------------||
|--------------|--------------|---------------|---------------||
|-5------5--3--|-(3)----------|-5------7------|---------------||
|-5------5--3--|-(3)----------|-5------7------|-----2---------||
|-3--0-0-3--1--|-(1)------0-0-|-3--0-0-5--0-0-|-5-3---5-3-2-1-||

4/4
   
||----------------|----------------|---------------|-------------------||
||o---------------|----------------|---------------|------------------o||
||----------------|----------------|---------------|-------------------||
||----------------|----------------|---------------|-------------------||
||o-2--4-----3-4--|-4---4---4-5-4--|-2--4-----3-4--|-4---4---4-5-4-4--o||
||--0--2---2---2--|-2---2---2-3-2--|-0--2-0-2---2--|-2---2---2-3-2-2---||


|----------|------------|------------|
|----------|------------|------------|
|----------|------------|------------|
|-2--------|-(2)--------|-(2)--------|
|-2--------|-(2)--------|-(2)--------|
|-0--------|-(0)--------|-(0)--------|


|------------|-----------------|-------------|
|------------|-----------------|-------------|
|------------|-----------------|-------------|
|-(2)--------|-(2)-------------|-------------|
|-(2)--------|-(2)--2-2----2-2-|----2-2------|
|-(0)--------|-(0)--0-0----0-0-|----0-0------|


||----------------|--------------||---------------|---------------------|
||o---------------|-------------o||---------------|---------------------|
||----------------|--------------||---------------|------------2--5-----|
||----------------|--------------||---------------|-3-2-5------2--5-----|
||o----2-2----2-2-|----2-2------o||----2-2----2-2-|-3-2-5--3-2-0--3-----|
||-----0-0----0-0-|----0-0-------||----0-0----0-0-|-1-0-3--1-0----------|


 4/4
  
|-------------------|----------------------|
|-------------------|----------------------|
|-------------------|----------------------|
|-3/2------3/2------|-3/2--------3/2--3-5--|
|-3/2------3/2------|-3/2--------3/2--3-5--|
|------0-0------0-0-|------0-0-0------1-3--|
  

|-------------------|----------------||
|-------------------|----------------||
|-------------------|------------2---||
|-2/2------3/2------|-----5------2---||
|-3/2------3/2------|-----5------0---||
|------0-0------0-0-|-1-0-3--1-0-----||
 

||--------------------|----------------------|
||o-------------------|----------------------|
||--------------------|----------------------|
||--3/2------3/2------|-3/2--------3/2--3-5--|
||o-3/2------3/2------|-3/2--------3/2--3-5--|
||-------0-0------0-0-|------0-0-0------1-3--|


|-------------------|--------------------|
|-------------------|--------------------|
|-------------------|--------------------|
|-------------------|--------------------|
|-5/4------5/4------|-5/4------5/4--4/5--|
|-3/2--2-2-3/2--2-2-|-3/2--2-2-3/2--2/3--|
                           end Rhy Fig 1-|

Rhy Fig 1 x3


  
|-----------|-----------|-----------|-----------||
|-----------|-----------|-----------|-----------||
|------8----|-7----6----|------8----|-7----6----||
|-2----8----|-7----6----|-2----8----|-7----6----||
|-2----6----|-5----4----|-2----6----|-5----4----||
|-0---------|-----------|-0---------|-----------||


 Chorus
  
|-----------------|-------------------|-----------------|-------------------|
|-----------------|-------------------|-----------------|-------------------|
|-----------------|-------------------|-----------------|-------------------|
|-9------9/8------|-8-7------7-6------|-9------9/8------|-8/7------7-6------|
|-7------7/6------|-6-5------5-4------|-7------7/6------|-6/5------5-4------|
|-7--0-0-7/6--0-0-|-6-5--0-0-5-4--0-0-|-7--0-0-7/6--0-0-|-6/5--0-0-5-4--0-0-|


|---------------------|-----------------------|
|---------------------|-----------------------|
|-9--------9/8--------|-8-7--------7-6--------|
|-9--------9/8--------|-8-7--------7-6--------|
|-7--------7/6--------|-6-5--------5-4--------|
|-7--0-0-0-7/6--0-0-0-|-6-5--0-0-0-5-4--0-0-0-|


 
|-------------------------|---------------------------|
|-------------------------|---------------------------|
|-------------------------|---------------------------|
|-9----------9/8----------|-8/7----------7-6----------|
|-7----------7/6----------|-6/5----------5-4----------|
|-7--0-0-0-0-7/6--0-0-0-0-|-6/5--0-0-0-0-5-4--0-0-0-0-|


      
|---------------------------|---------------------------|
|---------------------------|---------------------------|
|---------------------------|---------------------------|
|---------------------------|---------------------------|
|-6-5----------6/5----------|-6-5----------6/5----------|
|-4-3--3-3-3-3-4/3--3-3-3-3-|-4-3--3-3-3-3-4/3--3-3-3-3-|


 
|---------------|-----------------|
|---------------|-----------------|
|---------------|-----------------|
|---------------|-----------------|
|-2--4-----3-4--|-4---4---4-5-4---|
|-0--2---2---2--|-2---2---2-3-2---|


                                                   5/4
     
|---------------|-----------------|---------------|--------------------|
|---------------|-----------------|---------------|--------------------|
|---------------|-----------------|---------------|--------------------|
|---------------|-----------------|---------------|--------------------|
|-2--4-----3-4--|-----4---4-5-4-4-|-2--4-----3-4--|-4---4---4-5-4------|
|-0--2-0-2---2--|-2---2---2-3-2-2-|-0--2---2---2--|-2---2---2-3-2--0-0-|


 4/4             3/4               4/4
 
|---------------|----------------||---------------|-------------------||
|---------------|---------------o||---------------|-------------------||
|--------2------|----------------||---------------|-------------------||
|-5------2------|----------------||-2-------------|-2--------2--------||
|-5--2-2-0--2-2-|-----2---------o||-2-------------|-2--------2--------||
|-3--0-0----0-0-|-5-3---5-3-2-1--||-0-------3-2-1-|-0--3-2-1-0--3-2-1-||


 Interlude
  Faster Q=184
  Gtr II
  
|--------------|----------------|--------------|-----------------|
|--------------|----------------|--------------|-----------------|
|---4-0--------|-----4-0--------|---4-0--------|-----4---5---4-5-|
|-2-----4-2----|--2------4-2----|-2-----4-3----|-7-5---7---7-----|
|--------------|----------------|--------------|-----------------|
|--------------|----------------|--------------|-----------------|

 
|--------------|----------------|--------------|-----------------|
|--------------|----------------|--------------|-----------------|
|--------------|----------------|--------------|-----------------|
|--------------|----------------|--------------|---------2-------|
|-2------------|-(2)------------|-3------------|-5-------0-------|
|-0------------|-(0)------------|-1------------|-3---------------|


|--------------|----------------|--------------|-----------------|
|--------------|----------------|--------------|-----------------|
|---4-0--------|-----4-0--------|---4-4-3-2----|-----4---5---4-5-|
|-2-----4-2----|--2------4-2----|-2------------|-7-5---7---7-----|
|--------------|----------------|--------------|-----------------|
|--------------|----------------|--------------|-----------------|


|--------------|----------------|--------------|-----------------|
|--------------|----------------|--------------|-----------------|
|--------------|----------------|--------------|---------4-------|
|--------------|----------------|-7------------|-2-------4-------|
|-2------------|-(2)------------|-5------------|-0-------2-------|
|-0------------|-(0)------------|--------------|-----------------|



|--------------|--------------|--------------|-----------------|
|--------------|--------------|--------------|-----------------|
|---4-0--------|---4-0--------|---4-0--------|-----4---5---4-5-|
|-2-----4-2----|-2-----4-2----|-2-----4-3----|-7-5---7---7-----|
|--------------|--------------|--------------|-----------------|
|--------------|--------------|--------------|-----------------|



|--------------|--------------|--------------|-----------------|
|--------------|--------------|--------------|-----------------|
|--------------|--------------|--------------|-----------------|
|--------------|--------------|--------------|---------2-------|
|-2------------|-2-2----------|-3------------|-5-------0-------|
|-0------------|-0-0----------|-1------------|-3---------------|


  
|--------------|--------------|--------------|----------------------|
|--------------|--------------|--------------|----------------------|
|---4-0--------|---4-0--------|---4-4-3-2----|----------------------|
|-2-----4-2----|-2-----4-2----|-2------------|-2-2--2---4-4-4--4----|
|--------------|--------------|--------------|-0-0--0---2-2-2--2----|
|--------------|--------------|--------------|----------------------|



|--------------|--------------|--------------|----------------------|
|--------------|--------------|--------------|----------------------|
|--------------|--------------|--------------|----------------------|
|--------------|--------------|-7------------|-2-2--2---4-4-4--4----|
|-2------------|-2-2----------|-5------------|-0-0--0---2-2-2--2----|
|-0------------|-0-0----------|--------------|----------------------|


   Bridge
    Gtrs I, II


||------------------------|-----------------------|
||o-----------------------|-----------------------|
||------------------------|-----------------------|
||----------2----------2--|---------2----------2--|
||o---------2----------2--|---------2----------2--|
||--0-0-0-0-0--0-0-0-0-0--|-0-0-0-0-0--0-0-0-0-0--|



|-----------------------|-------------------------|
|-----------------------|-------------------------|
|-----------------------|-------------------------|
|---------3----------3--|---------5----------7----|
|---------3----------3--|---------5----------7----|
|-1-1-1-1-1--1-1-1-1-1--|-3-3-3-3-3--5-5-5-5-5----|



|-----------------------|-----------------------|
|-----------------------|-----------------------|
|-----------------------|-----------------------|
|---------2----------2--|---------2----------2--|
|---------2----------2--|---------2----------2--|
|-0-0-0-0-0--0-0-0-0-0--|-0-0-0-0-0--0-0-0-0-0--|



|-----------------------|----------------------||
|-----------------------|---------------------o||
|---------7----------7--|----------------------||
|---------7----------7--|-2-2--2---4-4-4--4----||
|-5-5-5-5-5--5-5-5-5-5--|-0-0--0---2-2-2--2---o||
|-----------------------|----------------------||


 Guitar Solo
  Gtr II
   |--3--|  |--3--|  |--3--|  |--3--|    |--3--|  |--3--|  |--3--|  |--3--|
   E  E  E  E  E  E  E  E  E  E  E  E    E  E  E  E  E  E  E  E  E  E  E  E
|-19p15----------15-19p15----------15-|-19p15----------15-19p15----------15-|
|-------17----17----------17----17----|-------17----17----------17----17----|
|----------16----------------16-------|----------16----------------16-------|
|-------------------------------------|-------------------------------------|
|-------------------------------------|-------------------------------------|
|-------------------------------------|-------------------------------------|


|-------------------------------------|-------------------------------------|
|-------------------------------------|-------------------------------------|
|-------------------------------------|-------------------------------------|
|-------------------------------------|-------------------------------------|
|--2-----2--2-----2--2-----2--2-----2-|--2-----2--2-----2--2-----2--2-----2-|
|--0-----0--0-----0--0-----0--0-----0-|--0-----0--0-----0--0-----0--0-----0-|
|-Rhy Fig 2

   |--3--|  |--3--|  |--3--|  |--3--|    |--3--|  |--3--|  |--3--|  |--3--|
   E  E  E  E  E  E  E  E  E  E  E  E    E  E  E  E  E  E  E  E  E  E  E  E
|-20p17----------17-20p17----------17-|-22p19----------19-22p19----------19----|
|-------18----15----------18----18----|-------20----20----------20----20-------|
|----------17----------------17-------|----------19----------------19----------|
|-------------------------------------|----------------------------------------|
|-------------------------------------|----------------------------------------|
|-------------------------------------|----------------------------------------|


|-------------------------------------|----------------------------------------|
|-------------------------------------|----------------------------------------|
|-------------------------------------|----------------------------------------|
|-------------------------------------|--------------------2-----2--2-----2----|
|--3-----3--3-----3--3-----3--3-----3-|--5-----5--5-----5--0-----0--0-----0----|
|--1-----1--1-----1--1-----1--1-----1-|--3-----3--3-----3----------------------|


   |--3--|  |--3--|  |--3--|  |--3--|    |--3--|  |--3--|  |--3--|  |--3--|
   E  E  E  E  E  E  E  E  E  E  E  E    E  E  E  E  E  E  E  E  E  E  E  E
|-19p15----------15-19p15----------15-|-19p15----------15-19p15----------15-|
|-------17----17----------17----17----|-------17----17----------17----17----|
|----------16----------------16-------|----------16----------------16-------|
|-------------------------------------|-------------------------------------|
|-------------------------------------|-------------------------------------|
|-------------------------------------|-------------------------------------|


|-------------------------------------|-------------------------------------|
|-------------------------------------|-------------------------------------|
|-------------------------------------|-------------------------------------|
|-------------------------------------|-------------------------------------|
|--2-----2--2-----2--2-----2--2-----2-|--2-----2--2-----2--2-----2--2-----2-|
|--0-----0--0-----0--0-----0--0-----0-|--0-----0--0-----0--0-----0--0-----0-|


   S  S  S    S  S  S  S    S  S  S  S    S  S  S  S    S
|-22-20-19---17-21-19-17------19-16---------17------------|
|--------------------------20-------20---19----20-19---17-|
|---------------------------------------------------------|
|---------------------------------------------------------|
|---------------------------------------------------------|
|---------------------------------------------------------|


|---------------------------------------------------------|
|---------------------------------------------------------|
|---------------------------------------------------------|
|--7-------7-----7-------7-----7-------7-----7-------7----|
|--5-------5-----5-------5-----5-------5-----5-------5----|
|---------------------------------------------------------|


   S  S   S  S  S  S  S  S    S  E.  +S   S  S  S
|---------------------------------------------------|
|-20-19--17----19-17-15-14---17p15--(15)-13-12-15---|
|-----------19--------------------------------------|
|---------------------------------------------------|
|---------------------------------------------------|
|---------------------------------------------------|


|---------------------------------------------------|
|---------------------------------------------------|
|---------------------------------------------------|
|--2--2---------2--------4-4--4-------4-------------|
|--0--0---------0--------2-2--2-------2-------------|
|---------------------------------------------------|
                                      end Rhy Fig 2-|

w/Rhy Fig 2

                                 |--3--|
   E      +E      E      +E      E  E  E  E  E
|------------------------------------------------|
|-15b17==(17)r---15b17==(17)r---15s12----12-15---|
|-------------------------------------14---------|
|------------------------------------------------|
|------------------------------------------------|
|------------------------------------------------|


                          ~~~~~~~~~~~~
   E  Q          +E      E      +E      S  S  S    S
|----------------------------------------------------|
|-12-15b17======(17)r---15b17==(17)r---15p12------12-|
|--------------------------------------------13------|
|----------------------------------------------------|
|----------------------------------------------------|
|----------------------------------------------------|



   E  S    S  S  S  S    S  S  S  E    E  E      E  Q.           +Q       Q
|-15-15p==12----------------------------------|--------------------------(7)/---|
|------------15p12------12-15p12--------------|----15-----------(15)\-----------|
|------------------14------------14---12------|-12-14b16========(16)r\----------|
|----------------------------------------14---|---------------------------------|
|---------------------------------------------|---------------------------------|
|---------------------------------------------|---------------------------------|



   S  S  S    S  S  S  S    S  S  S  S    S  S  S  S    S
|-19p15------15-19p15-17p==15----15-19p==15-17p15------15-|
|-------17--------------------17------------------17------|
|---------------------------------------------------------|
|---------------------------------------------------------|
|---------------------------------------------------------|
|---------------------------------------------------------|


   S  S  E    S  S  S    S  E  S    S  S  E.
|-19p15------19p15-17p==15----19p==15-17p15----|
|-------17-----------------15------------------|
|----------------------------------------------|
|----------------------------------------------|
|----------------------------------------------|
|----------------------------------------------|


                            ~~~~~                                      ~~~~~~~~~~~~~
                                   |--3--|
   Q        +Q      E      +E      E  E  E    E     Q        +E        Q       +Q
|-20b22====(22)r---20b22==(22)r---19p17----|-17----22b24====(24)r-----22b24===(24)r----|
|-20b22====(22)r------------------------19-|-------------------------------------------|
|------------------------------------------|-------------------------------------------|
|------------------------------------------|-------------------------------------------|
|------------------------------------------|-------------------------------------------|
|------------------------------------------|-------------------------------------------|



    Faster Q=184
    Gtr II

||------------------|-------------------|-----------------|------------------|
||o-----------------|-------------------|-----------------|------------------|
||----4-0-----------|-----4-0-----------|---4-0-----2-0---|-----4---5---4-5--|
||--2-----4-2-5-4-2-|--2------4-2-5-4-2-|-2-----4-3-----3-|-7-5---7---7------|
||o-----------------|-------------------|-----------------|------------------|
||------------------|-------------------|-----------------|------------------|


||------------------|-------------------|-----------------|------------------|
||o-----------------|-------------------|-----------------|------------------|
||------------------|-------------------|-----------------|------------------|
||------------------|-------------------|-----------------|---------2--------|
||o-2---------------|-(2)---------------|-3---------------|-5-------0--------|
||--0---------------|-(0)---------------|-1---------------|-3----------------|



|-----------------|-------------------|
|-----------------|-------------------|
|---4-0-----------|-----4-0-----------|
|-2-----4-2-5-4-2-|--2------4-2-5-4-2-|
|-----------------|-------------------|
|-----------------|-------------------|


|-----------------|-------------------|
|-----------------|-------------------|
|-----------------|-------------------|
|-----------------|-------------------|
|-2---------------|-(2)---------------|
|-0---------------|-(0)---------------|



|-----------------|-----------------------||
|-----------------|----------------------o||
|---4-4-3-2-4-3-2-|-----------------------||
|-2---------------|-2-2--2---4-4-4--4-----||
|-----------------|-0-0--0---2-2-2--2----o||
|-----------------|-----------------------||


|-----------------|-----------------------||
|-----------------|----------------------o||
|-----------------|-----------------------||
|-7---------------|-2-2--2---4-4-4--4-----||
|-5---------------|-0-0--0---2-2-2--2----o||
|-----------------|-----------------------||


  Gtrs I, II

|-------------------------|-------------------------|
|-------------------------|-------------------------|
|-------------------------|-------------------------|
|-------------------------|-------------------------|
|-------------------------|-------------------------|
|-5-5-5-5-5-5-5-5-5-5-5-5-|-5-5-5-5-5-5-5-5-5-5-5-5-|


 
|-------------------------|----------------------------||
|-------------------------|----------------------------||
|-------------------------|----------------------------||
|-------------------------|----------------------------||
|-------------------------|----------------------------||
|-3-3-3-3-3-3-3-3-3-3-3-3-|-2-2-2-2-2-2-1-1-1-1-1-1----||


 H
|-----------|-----------|-----------|-----------||
|-----------|-----------|-----------|-----------||
|------8----|-7----6----|------8----|-7----6----||
|-2----8----|-7----6----|-2----8----|-7----6----||
|-2----6----|-5----4----|-2----6----|-5----4----||
|-0---------|-----------|-0---------|-----------||


 
|-----------------------|-----------------------|
|-----------------------|-----------------------|
|-----------------------|-----------------------|
|---------2----------2--|---------2----------2--|
|---------2----------2--|---------2----------2--|
|-0-0-0-0-0--0-0-0-0-0--|-0-0-0-0-0--0-0-0-0-0--|


  
|-----------|-----------|-----------|-----------||
|-----------|-----------|-----------|-----------||
|------8----|-7----6----|------8----|-7----6----||
|-9----8----|-7----6----|-9----8----|-7----6----||
|-7----6----|-5----4----|-7----6----|-5----4----||
|-0---------|-----------|-0---------|-----------||


|-----------------------|-----------------------||---------------------------|
|-----------------------|-----------------------||o--------------------------|
|-----------------------|-----------------------||---------------------------|
|---------5----------5--|---------5----------5--||---------------------------|
|---------5----------5--|---------5----------5--||o-7-----------6------------|
|-3-3-3-3-3--3-3-3-3-3--|-3-3-3-3-3--3-3-3-3-3--||----0-0-0-0-0---0-0-0-0-0--|


|--------------------------||-------------------------|
|-------------------------o||-------------------------|
|--------------------------||-------------------------|
|--------------------------||-5-----------5-----------|
|-5-----------4-----------o||-5-----------5-----------|
|---0-0-0-0-0---0-0-0-0-0--||-3-3-3-3-3-3-3-3-3-3-3-3-|


 
|-------------------------|-----------|
|-------------------------|-----------|
|-------------------------|-----------|
|-5-----------5-----------|-5----5----|
|-5-----------5-----------|-5----5----|
|-3-3-3-3-3-3-3-3-3-3-3-3-|-3----3----|


                                                   Q=136

|-----------|----------|------------|------------|--------||
|-----------|----------|------------|------------|--------||
|-----------|----------|------------|------------|--------||
|-5----5----|-5--------|-(5)--------|-(5)--------|-(5)----||
|-5----5----|-5--------|-(5)--------|-(5)--------|-(5)----||
|-3----3----|-3--------|-(3)--------|-(3)--------|-(3)----||


                             
              

|-------------------|---------------|
|-------------------|---------------|
|-------------------|---------------|
|-------------------|---------------|
|---------2---------|-2--4-----3-4--|
|-3-2-5-3---5-3-2-1-|-0--2---2---2--|


 
|----------------|---------------|-------------------|
|----------------|---------------|-------------------|
|----------------|---------------|-------------------|
|----------------|---------------|-------------------|
|-4---4---4-5-4--|-2--4-----3-4--|-4---4---4-5-4-4---|
|-2---2---2-3-2--|-0--2-0-2---2--|-2---2---2-3-2-2---|


                 5/4                  4/4             3/4

|---------------|--------------------|---------------|----------------|
|---------------|--------------------|---------------|----------------|
|---------------|--------------------|--------2------|----------------|
|---------------|--------------------|-5------2------|----------------|
|-2--4-----3-4--|-4---4---4-5-4--2-2-|-5--2-2-0--2-2-|-----2----------|
|-0--2---2---2--|-2---2---2-3-2--0-0-|-3--0-0----0-0-|-5-3---5-3-2-1--|


 4/4
    
|------------|----------------*|
|------------|----------------*|
|------------|----------------*|
|-2----------|-3--2-2-2-2-----*|
|-2----------|-3--2-2-2-2-----*|
|-0----------|-1--0-0-0-0-----*|





Comments


Popular Metallica tabs & chords
And Justice For All With Tabs
Broken Beat And Scarred 3 Tabs
Die Die My Darlin Tabs
Escape 4 Tabs
Fade To Black 2 Tabs
Fade To Black Live Intro Tabs
Leper Messiah 1 Tabs
Mexico City Riff 1 Tabs
The Memory Remains 1 Tabs
The Unnamed Feeling Tabs


Song lyrics



↑ Back to top | Tablatures and chords are parodies/interpretations of the original songs. You may use it for private study, scholarship, research or language learning purposes only
© 2014 AZChords.com Contact us | Privacy policy | DMCA | Add/correct tabs | Request tabs | Top 50 tabs