>
 >
Last Caress

Last Caress Guitar Tabs

Metallica - Last Caress chords, tabs, tablatures, lyrics

Guitar lessons | Add/correct | Request | Top 50 tabs Artists:  A B C D E F G H I J K L M N O P Q R S T U V W X Y Z 0-9

Last Caress Guitar Tabs – Metallica

CD, Sheet music, Poster

Do you like Last Caress? Share with your friends now
TabsTabs v2Tabs v3
PROPS GO TO: Jesse .

LAST CARESS


I'm not sure if this is 100 % correct, but it sounds right to me anyway...You should
use 2 guitars for the best sound and play it like this:

 I got something to say       I killed your baby today
   (Guitar 1)
   C                           C                     F  G
E|--------------------------------------------------------|
B|--------------------------------------------------------|
G|-5--------------------------(5)-------------------------|
D|-5--------------------------(5)-------------------10-12-|
A|-3------(let ring)----------(3)-------------------8--10-|
E|--------------------------------------------------------|

(Guitar 2, at the same time)
                       F G                          F  G  
|--------------------------------------------------------|
|--------------------------------------------------------|
|--------------------------------------------------------|
|--------------------------------------------------------|
|----------------------3-5-(x)----------------------3--5-|
|----------------------1-3-(x)----------------------1--3-|


  Doesn't matter much to me ... as long as It's dead...       

 (Guitar 1)                                                   
  F                 D                C    C                   
|-------------------------------------------------------------
|-------------------------------------------------------------
|-------------------------------------------------------------
|-10----------------7----------------5----5-5-5-5-5-5-5-5-5-5-
|-8-----------------5----------------3----3-3-3-3-3-3-3-3-3-3-
|-------------------------------------------------------------

(Guitar 2, the same timing)                                   
  F                 D                C    C                   
|-------------------------------------------------------------
|-------------------------------------------------------------
|-------------------------------------------------------------
|-------------------7----------------5----5-5-5-5-5-5-5-5-5-5-
|-3-----------------5----------------3----3-3-3-3-3-3-3-3-3-3-
|-1-----------------------------------------------------------


  (Guitar 1)                                    
  F   G  C   C                         F  G  G  
|-----------------------------------------------
|-----------------------------------------------
|-----------------------------------------------
|-10-12--5---5-5-5-5-5-5-5-5-5-5-------10-12-12-
|-8--10--3---3-3-3-3-3-3-3-3-3-3-------8--10-10-
|-----------------------------------------------

  (Guitar 2, the same timing)                   
  F  G   C                             F  G  (G)
|-----------------------------------------------
|-----------------------------------------------
|-----------------------------------------------
|--------5---5-5-5-5-5-5-5-5-5-5----------------
|-3--5---3---3-3-3-3-3-3-3-3-3-3-------3--5--(5)
|-1--3---------------------------------1--3--(3)

I got something to say              I raped your mother today  
  (Guitar 1)                                                   
  C  C                    F  G   C  C . . . . . . . . .   F  G 
|--------------------------------------------------------------
|--------------------------------------------------------------
|--------------------------------------------------------------
|-5--5-5-5-5-5-5-5-5-5-5--10-12--5--5-5-5-5-5-5-5-5-5-5---10-12
|-3--3-3-3-3-3-3-3-3-3-3--8--10--3--3-3-3-3-3-3-3-3-3-3---8--10
|--------------------------------------------------------------


  (Guitar 2, the same timing)
  C  C                    F  G   C  C                     F  G 
|--------------------------------------------------------------
|--------------------------------------------------------------
|--------------------------------------------------------------
|-5--5-5-5-5-5-5-5-5-5-5---------5--5-5-5-5-5-5-5-5-5-5--------
|-3--3-3-3-3-3-3-3-3-3-3--3--5---3--3-3-3-3-3-3-3-3-3-3---3--5-
|-------------------------1--3----------------------------1--3-

Doesn't matter much to me as long as she's spread
  (Guitar 1)
  F  F         D D            C C               B/C B/C
|----------------------------------------------------------------
|----------------------------------------------------------------
|----------------------------------------------------------------
|-10-10--------7-7------------5-5---------------4s5-4s5----------
|-8--8---------5-5------------3-3---------------2s3-2s3----------
|----------------------------------------------------------------

  (Guitar 2, the same timing)
  F  F         D D            C C               B/C B/C                        
|-----------------------------------------------------------------
|-----------------------------------------------------------------
|-----------------------------------------------------------------
|--------------7-7------------5-5---------------4s5-4s5-----------
|-3--3---------5-5------------3-3---------------2s3-2s3-----------
|-1--1------------------------------------------------------------


 Sweet lovely death ..... just waiting for your   breath
   (Both Guitar 1 & 2)
  F F G                     E                     D  C
|---------------------------------------------------------------
|---------------------------------------------------------------
|---------------------------------------------------------------
|---------------------------9-9-9-9-9-9-9-9-9--s--7--5----------
|-3-3--5--------------------7-7-7-7-7-7-7-7-7--s--5--3----------
|-1-1--3--------------------------------------------------------

 Come sweet death,          one last caress
  (Guitar 1)
  F  F    G                   C  C                     F  G  G
|------------------------------------------------------------------
|------------------------------------------------------------------
|------------------------------------------------------------------
|-----------------------------5--5-5-5-5-5-5-5-5-5-5---10-12-12----
|-3--3----5--5----------------3--3-3-3-3-3-3-3-3-3-3---8--10-10----
|-1--1----3--3-----------------------------------------------------

  (Guitar 2, the same timing)
  F  F    G                   C  C                     F  G  G
|-------------------------------------------------------------------
|-------------------------------------------------------------------
|-------------------------------------------------------------------
|-----------------------------5--5-5-5-5-5-5-5-5-5-5----------------
|-3--3----5--5----------------3--3-3-3-3-3-3-3-3-3-3---3--5--5------
|-1--1----3--3-----------------------------------------1--3--3------


...and so on. If you think that this tab is b-shit,
 I'm sorry that I have wasted your time, if not, enjoy...





Comments


Popular Metallica tabs & chords
Enter Sandman 4 Bass Tabs
Astronomy 3 Tabs
Carpe Diem Baby 2 Tabs
Die Die My Darling 1 Tabs
Dirty Window Tabs
Fade To Black Intro Tabs
Green Hell 1 Tabs
I Disappear 5 Tabs
Sabbra Cadabra 1 Tabs
Whiskey In The Jar Part 2 Tabs


Song lyrics



↑ Back to top | Tablatures and chords are parodies/interpretations of the original songs. You may use it for private study, scholarship, research or language learning purposes only
© 2014 AZChords.com Contact us | Privacy policy | DMCA | Add/correct tabs | Request tabs | Top 50 tabs