>
 >
Its Electric 2

Its Electric 2 Guitar Tabs

Metallica - Its Electric 2 chords, tabs, tablatures, lyrics

Guitar lessons | Add/correct | Request | Top 50 tabs Artists:  A B C D E F G H I J K L M N O P Q R S T U V W X Y Z 0-9

Its Electric 2 Guitar Tabs – Metallica

CD, Sheet music, Poster

Do you like Its Electric 2? Share with your friends now
Tabs

B5              x 2 4 x x x 
E5              x x 2 4 x x 
E5(type 2)      0 2 x x x x 
F#5             2 4 x x x x 
A5              x 0 2 x x x 


Gtr I (Eb Ab Db Gb Bb Eb) - 'James Hetfield - Rhythm w/dist'
Gtr II (Eb Ab Db Gb Bb Eb) - 'Kirk Hammett - Rhythm w/dist'
Gtr III (Eb Ab Db Gb Bb Eb) - 'Kirk Hammett - Lead w/dist'

Intro
  Q=182
 4/4
  Gtr I
                                PM|
  E E E E E E E E   +E  E E E E E E E
|-----------------|-------------------|
|-----------------|-------------------|
|-----------------|-------------------|
|-4-2---2---------|-----------2-----2-|
|-----4---4-2-0-2-|-(2)-4-x-x-0-----0-|
|---------------0-|-(0)-2-x-x---0-0---|
                  |-Rhy Fill 1

      PM|                       PM|
  +E  E E E +E  E Q    Q  E E E E E E
|--------------------|----------------|
|--------------------|----------------|
|--------------------|----------------|
|-(2)-----2-(2)-4-4--|--------2-----2-|
|-(0)-----0-(0)-2-2--|-4--4-4-0-----0-|
|-----0-0------------|-2--2-2---0-0---|
      end Rhy Fill 1-|

                  F#
  Gtr II
   H         Q    Q      W
                  |
                  o

  Gtr I              Gtrs I, II
      PM|                         PM|
  +E  E E E +E  E Q      Q  E E E E E E
|--------------------||-----------------|
|--------------------||o----------------|
|--------------------||-----------------|
|-(2)-----2-(2)-4-4--||---------2-----2-|
|-(0)-----0-(0)-2-2--||o-4--4-4-0-----0-|
|-----0-0------------||--2--2-2---0-0---|
                      |-Rhy Fig 1


                       |-Rhy Fig 2A
                     Gtr II
                         B5
   W                     Q.   E +Q   Q
                         |    |  |   |
                         /    /  /   /

                     Gtr I
      PM|
  +E  E E E +E  E Q      Q.   E +Q   Q
|---------------------||----------------|
|--------------------o||----------------|
|---------------------||----------------|
|-(2)-----2-(2)-4-4---||-4----4-(4)--4--|
|-(0)-----0-(0)-2-2--o||-2----2-(2)--2--|
|-----0-0-------------||----------------|
        end Rhy Fig 1-||-Rhy Fig 2

                                       end Rhy Fig 2A-|
                        E5                          E5(type 2)
  +W               Q.   E +Q   Q      H       Q   E E
   |               |    |  |   |                    |
   /               /    /  /   /                    /

  +H     +E  Q.    Q.   E +Q   E E    E E E E E E E E
|----------------|------------------|-----------------||
|----------------|------------------|-----------------||
|----------------|------------------|-----------------||
|-(4)----(4)-----|------9-(9)----9\-|-4-2---2---------||
|-(2)----(2)-----|-9----7-(7)--9----|-----4---4-2-0-2-||
|------------2S==|=7-----------7----|---------------0-||
                                        end Rhy Fig 2-|

   Verse 1, 2
 |-Rhy Fig 3              end Rhy Fig 3-|
        F#5        A5      E5(type 2)
    +E  E Q  Q   E E   +E  E Q  Q   E E
     |  |          |    |  |          |
     /  /          /    /  /          /

    +E  E Q  E E E E   +E  E Q  E E E E
||-------------------|------------------|
||o------------------|------------------|
||-------------------|------------------|
||-----------------2-|-(2)--------------|
||o-(2)-4----x---x-0-|-(0)-2----x---x-2-|
||--(0)-2----x---x---|-----0----x---x-0-|


Rhy Fig 3 x5
  +E  E Q  E E E E   +E  E Q  E E E E
|------------------|------------------|
|------------------|------------------|
|------------------|------------------|
|----------------2-|-(2)--------------|
|-(2)-4----x---x-0-|-(0)-2----x---x-2-|
|-(0)-2----x---x---|-----0----x---x-0-|



  +E  E Q  E E E E   +E  E Q  E E E E
|------------------|------------------|
|------------------|------------------|
|------------------|------------------|
|----------------2-|-(2)--------------|
|-(2)-4----x---x-0-|-(0)-2----x-x-x-2-|
|-(0)-2----x---x---|-----0----x-x-x-0-|



  +E  E Q  E E E E   +E  E   +E  E E     +Q          E   +E   E   Q  E E E E
|------------------|-----------------------------------|---------------------|
|------------------|-----------------------------------|---------------------|
|------------------|-----4b6r(4)p2-4b6r==(4)-----------|---------------------|
|----------------2-|-(2)-------------------------------|-------------------2-|
|-(2)-4----x---x-0-|-(0)-----------------------------2-|-(2)--4------x---x-0-|
|-(0)-2----x---x---|---------------------------------0-|-(0)--2------x---x---|
|
|                                                    ~~~~~~~~
| +E  E Q  E E E E   +E  Q.        Q         +S  +S  E   +E  +E   Q  Q   E E
|------------------|-----------------------------------|---------------------|
|------------------|-----5-----------------------------|---------------------|
|------------------|---------------4pb6======(4)r(4)-2-|-(2)-(2)\------------|
|----------------2-|-(2)-------------------------------|-------------------2-|
|-(2)-4----x---x-0-|-(0)-------------------------------|----------x------x-0-|
|-(0)-2----x---x---|-----------------------------------|----------x--2---x---|
|-Gtr I substitutes 2nd time


  +E  E Q  E E E E   +E  E Q  E E E E   +E  E Q  E E E E
|------------------|------------------|------------------|
|------------------|------------------|------------------|
|------------------|------------------|------------------|
|-(2)--------------|----------------2-|-(2)--------------|
|-(0)-2----x---x-2-|-(2)-4----x-x-x-0-|-(0)-2----x-x---2-|
|-----0----x---x-0-|-(0)-2----x-x-x---|-----0----x-x---0-|


      F#5        A5      E5(type 2)         F#5        A5      E5(type 2)
  +E  E Q  Q   E E   +E  E Q  Q   E E   +E  E Q  Q   E E   +E  E Q   Q   E E
   |  |          |    |  |          |    |  |          |    |  |           |
   /  /          /    /  /          /    /  /          /    /  /           /

  +E  E Q  E E E E   +E  E Q  E E E E   +E  E Q  E E E E   +E  Q   E Q.    E
|------------------|------------------|------------------|--------------------||
|------------------|------------------|------------------|--------------------||
|------------------|------------------|------------------|--------------------||
|----------------2-|-(2)--------------|----------------2-|-(2)----------------||
|-(2)-4----x-x---0-|-(0)-2----x-x-x-2-|-(2)-4----x-x-x-0-|-(0)-2-----------4--||
|-(0)-2----x-x-----|-----0----x-x-x-0-|-(0)-2----x-x-x---|-----0---2s9\----2--||


 Chorus
  $
  Gtrs I, II
             PM|         PM|
  +Q   E E E E E E   +E  E E E +E  E Q
|------------------|--------------------|
|------------------|--------------------|
|------------------|--------------------|
|----------2-----2-|-(2)-----2-(2)-4-4--|
|-(4)--4-4-0-----0-|-(0)-----0-(0)-2-2--|
|-(2)--2-2---0-0---|-----0-0------------|
|-Rhy Fill 2             end Rhy Fill 2-|

           PM|         PM|                       PM|
  Q  E E E E E E   +E  E E E +E  E Q    Q  E E E E E E
|----------------|--------------------|----------------|
|----------------|--------------------|----------------|
|----------------|--------------------|----------------|
|--------2-----2-|-(2)-----2-(2)-4-4--|--------2-----2-|
|-4--4-4-0-----0-|-(0)-----0-(0)-2-2--|-4--4-4-0-----0-|
|-2--2-2---0-0---|-----0-0------------|-2--2-2---0-0---|


  Gtr I
      PM|                       PM|         PM|
  +E  E E E +E  E Q    Q  E E E E E E   +E  E E E +E  E   +Q
|--------------------|----------------|------------------------|
|--------------------|----------------|------------------------|
|--------------------|----------------|------------------------|
|-(2)-----2-(2)-4-4--|--------2-----2-|-(2)-----2-(2)-4b5r(4)--|
|-(0)-----0-(0)-2-2--|-4--4-4-0-----0-|-(0)-----0-(0)-4b5r(4)--|
|-----0-0------------|-2--2-2---0-0---|-----0-0----------------|
|
| Gtr II
|     PM|                       PM|         PM|
| +E  E E E +E  E Q    Q  E E E E E E   +E  E E E +E  E    Q
|--------------------|----------------|------------------------|
|--------------------|----------------|------------------------|
|--------------------|----------------|------------------------|
|-(2)-----2-(2)-4-4--|--------2-----2-|-(2)-----2-(2)-4----4---|
|-(0)-----0-(0)-2-2--|-4--4-4-0-----0-|-(0)-----0-(0)-2----2---|
|-----0-0------------|-2--2-2---0-0---|-----0-0----------------|


  Gtrs I, II
  Rhy Fig 1 x3


                               To Coda
                                        B5
                                      Gtr II
  W                 W                   Q.   E +Q   Q
                                        |    |  |   |
                                        /    /  /   /

                                      Gtr I
           PM|         PM|
  Q  E E E E E E   +E  E E E +E  E Q    Q.   E +Q   Q
|----------------|--------------------|----------------|
|----------------|--------------------|----------------|
|----------------|--------------------|----------------|
|--------2-----2-|-(2)-----2-(2)-4-4--|-4----4-(4)--4--|
|-4--4-4-0-----0-|-(0)-----0-(0)-2-2--|-2----2-(2)--2--|
|-2--2-2---0-0---|-----0-0------------|----------------|


  1.
                        E5     B5                   E5(type 2)
  +W               Q.   E +Q   Q    +H       +Q.    E
   |               |    |  |   |     |        |     |
   /               /    /  /   /     /        /     /

                                                 ~
  +H     +E  Q.    Q.   E +Q   Q     E E E E  E  Q  E
|----------------|----------------|--------------------||
|----------------|----------------|-------------------o||
|----------------|----------------|------2-------------||
|-(4)----(4)-----|------9-(9)-----|----4-2-2--4--4-----||
|-(2)----(2)-----|-9----7-(7)--9--|--x--------------2-o||
|------------2S==|=7-----------7--|--x--------------0--||


  2.
                    B5   B5     B5                   F#5
  +W                Q.   E +Q   Q    +H     +Q.      E
   |                |    |  |   |     |      |       |
   /                /    /  /   /     /      /       /

                                                   Gtrs I, III
   H     +E  E Q    Q.   E +Q   Q     H      Q     E E
|-----------------|----------------|----------------------||
|-----------------|----------------|-----------------5b7==||
|-----------------|----------------|----------------------||
|-(4)----(4)-4----|------9-(9)-----|----------------------||
|-(2)----(2)------|-9----7-(7)--9--|-(9)-----x--9\---2----||
|--------------2S=|=7-----------7--|-(7)-----x--7\---0----||
                                     +H      E  Q    E


 Guitar Solo
w/Rhy Fills 1 + 2
  Gtr III
  +H         Q.      E      +E   E E E  E  E Q
|-------------------------|------------------------|
|-(5)r-------5b7-----5b7==|=(5)r-5-3-2-----2-------|
|-------------------------|-------------4----4b6===|
|-------------------------|------------------------|
|-------------------------|------------------------|
|-------------------------|------------------------|


w/Rhy Fig 1 x2
  +E  +E  E E E E E    +S  S
|----------------------------|
|----------------------------|
|-(4)r(4)-2---2-4-4pb6r(4)p2-|
|-----------4----------------|
|----------------------------|
|----------------------------|


                      |--3--|
   S  S E E E +Q      E  E  E
|-----------------------------|
|-----------------------------|
|--4p=2---2----------------17-|
|-------4---4-(4)/---14h16----|
|-----------------------------|
|-----------------------------|


   ~~~                       ~~~
                |---3---|                    |--3--|
   H.           E  E    E    H.              E  E  E
|-------------------------|--------------------------|
|-------------------------|--------------------------|
|-16-------------------17-|-16--------------------17-|
|--------------14h16------|-----------------14h16----|
|-------------------------|--------------------------|
|-------------------------|--------------------------|


               |-----3------|                                        |-3--|
   E  E  E  E  E     +E     E  S  S  E    E   E  E  E      +Q        E  E E
|--------------------------------------|------------------------------------|
|--------------------------------------|-----------17b21==(17)r\-------12p0-|
|-16-14----14-16b18r(16)p==14-16p14----|-14--16-14------------------14------|
|-------16--------------------------16-|------------------------------------|
|--------------------------------------|------------------------------------|
|--------------------------------------|------------------------------------|
|
|                        PM---|               PM|
|  Q     E  E  E         E     E     E   +E   E  E  E      +E    Q.
|--------------------------------------|------------------------------------|
|--------------------------------------|------------------------------------|
|--------------------------------------|------------------------------------|
|--------------2---------------------2-|-(2)--------2------(2)---2/---------|
|--4-----4--4--0---------------------0-|-(0)--------0------(0)---0----------|
|--2-----2--2------------0-----0-------|------0--0--------------------------|


   S  S E  S  S E  S  S E  S  S E    S  S E  S  S E  S S E  S S E
|---------------------------------|-------------------------------|
|-15p12p0-15p12p0-14p11p0-14p11p0-|-13p10p0-14p10p0-12p9p0-12p9p0-|
|---------------------------------|-------------------------------|
|---------------------------------|-------------------------------|
|---------------------------------|-------------------------------|
|---------------------------------|-------------------------------|
|
|       PM------|       PM------|         PM------|      PM-----|
|  E    E  E    E  E    E  E    E    E    E  E    E  E   E  E   E
|---------------------------------|-------------------------------|
|---------------------------------|-------------------------------|
|---------------------------------|-------------------------------|
|---------------------------------|-------------------------------|
|--9---------------8--------------|--7---------------6------------|
|--7----7--7----7--6----6--6----6-|--5----5--5----5--4---4--4---4-|


   S  S E  S  S E  S  S E  S  S E    S  S E  S  S E  S  S E  S  S S S
|-22p19p0-22p19p0-21p18p0-21p17p0-|-22p17p0-20p17p0-19p16p0-18p15p0---|
|---------------------------------|---------------------------------0-|
|---------------------------------|-----------------------------------|
|---------------------------------|-----------------------------------|
|---------------------------------|-----------------------------------|
|---------------------------------|-----------------------------------|
|
|       PM------|       PM------|
|  E    E  E    E  E    E  E    E    E    E  E    E  E    E  E    E
|---------------------------------|-----------------------------------|
|---------------------------------|-----------------------------------|
|---------------------------------|-----------------------------------|
|---------------------------------|-----------------------------------|
|--9---------------8--------------|--7----7--7----7--6----6--6----4---|
|--7----7--7----7--6----6--6----6-|--5----5--5----5--4----4--4----2---|

w/Rhy Fill 2
   |------6------|  |-----6------|  |-----6------|  |-----6------|
   S   S S  S  S S  S  S S  S  S S  S  S S  S  S S  S  S S  S  S S
|-17p=14p0---------17p14p0---------17p14p0---------17p14p0---------|
|----------17p14p0---------17p14p0---------17p14p0---------17p14p0-|
|------------------------------------------------------------------|
|------------------------------------------------------------------|
|------------------------------------------------------------------|
|------------------------------------------------------------------|


   |------6------|  |-----6------|  |------6------|  |-----6------|
   S   S S  S  S S  S  S S  S  S S  S   S S  S  S S  S  S S  S  S S
|-17p=14p0---------17p14p0---------17p=14p0---------17p14p0---------|
|----------17p14p0---------17p14p0----------17p14p0---------17p14p0-|
|-------------------------------------------------------------------|
|-------------------------------------------------------------------|
|-------------------------------------------------------------------|
|-------------------------------------------------------------------|

w/Rhy Fig 1 x2
   S  S  S  S  S  S  S  S  S  S  S  S  S  S  E
|-17p14-17p14-------17p14-17p14-------17-14----|
|-------------17p14-------------17p14-------17-|
|----------------------------------------------|
|----------------------------------------------|
|----------------------------------------------|
|----------------------------------------------|


                     ~~~~
                           |---3---|
   E   E  E  E      +Q     S  +S   S  S  S
|-14---------------------------------------|
|-----14-17-17b19==(17)---17r(17)p14-------|
|------------------------------------16p14-|
|------------------------------------------|
|------------------------------------------|
|------------------------------------------|


                                                 T             ~~~
   |----3-----|
   E     +E   E  S  S  E  E  E  E  E        +E   S  +S   E  E  Q.      E
|----------------------------------------|-------------------------------|
|---------------------------------17b20==|=(17)-24r(24)------------------|
|-16b18r(16)p14-16p14----14-16-14--------|--------------16-14---------14-|
|---------------------16-----------------|--------------------16---------|
|----------------------------------------|-------------------------------|
|----------------------------------------|-------------------------------|


                                                     2/4
   E      +E   E  E Q   E E   E  E Q   E     E  Q      +H
|---------------------------|------------------14---|-(14)\----|
|-16b17==(16)r---14---------|---------------14-14---|-(14)\----|
|-16b17==(16)r---14---------|---------16b18---------|----------|
|----------------------16---|---14------------------|----------|
|---------------------------|-----------------------|----------|
|---------------------------|-----------------------|----------|
|
|  E       E   E  E Q   E E   E  E Q   E     E  E E     H
|---------------------------|-----------------------|----------|
|---------------------------|-----------------------|----------|
|---------------------------|-----------------------|----------|
|--4--------------2---------|-----------------------|----------|
|--2--------------0-----4---|----2--------------0---|----------|
|-----------------------2---|----0-----0-----2------|----------|


  F#5
 4/4
  Gtr II
   W           +W                 +W            +W
   |            |                  |             |
   /            /                  /             /

  Gtr III
   ~~~~~~~~~~~~~~~~                ~~~~~~~~~~~~~~~~~
   W           +H     +E  Q   E    W            +W
|------------|------------------|------------|---------|
|------------|------------------|------------|---------|
|------------|------------9s=11-|-11---------|-(11)----|
|-[7]--------|-(7)----(7)-9s=11-|-11---------|-(11)----|
|------------|------------------|------------|---------|
|------------|------------------|------------|---------|
|
| Gtr I
|  ~~~~~~~~~~~~~~~~~~~~~~~~~~~~~~~~~~~~~~~~~~~~~~~~~
|  W           +W                 +W            +W
|------------|------------------|------------|---------|
|------------|------------------|------------|---------|
|------------|------------------|------------|---------|
|------------|------------------|------------|---------|
|------------|------------------|------------|---------|
|--2---------|-(2)--------------|-(2)--------|--(2)----|


   +W                +W                W          W
    |                 |
    /                 /

    ~~~~~~~~~~~
   +H      +Q.   E   +Q.     E  H      W          W
|------------------|-----------------|----------|------||
|------------------|-----------------|----------|------||
|-(11)----(11)---9-|-(9)\---(2)------|----------|------||
|-(11)----(11)---9-|-(9)\---(2)------|----------|------||
|------------------|-----------------|----------|------||
|------------------|-----------------|----------|------||
|
|   >
|   ~~~~~~~~~~~~~~~~~~~~~~
|  +W                +W                W          W
|------------------|-----------------|----------|------||
|------------------|-----------------|----------|------||
|------------------|-----------------|----------|------||
|------------------|-----------------|----------|------||
|------------------|-----------------|----------|------||
|--(2)-------------|-(2)-------------|----------|------||


 Verse 3
                                                  D.S. al Coda
              Gtr I
  Wx14          Q  Q  Q  Q    E E E E E E E E
|-------------|-------------|------------------||
|-------------|-------------|------------------||
|-------------|-------------|-2-4--------------||
|-------------|-------------|------------------||
|-------------|-x--x--4--0--|---------------4--||
|-------------|-x--x--2--0--|-------2-5-5-4-2--||


   Outro
    &
    Gtrs I, II
    Rhy Fig 1 x4


  B5
  Gtr II
  Q.   E +Q   Q    +W
  |    |  |   |     |
  /    /  /   /     /

  Gtr I
  Q.   E +Q   Q    +H     +E  Q.
|----------------|-----------------|
|----------------|-----------------|
|----------------|-----------------|
|-4----4-(4)--4--|-(4)----(4)------|
|-2----2-(2)--2--|-(2)----(2)------|
|----------------|------------2/---|


       E5     B5                   E5(type F#5
  Q.   E +Q   Q      H       Q   E E   +E  Q.   +Q    Q
  |    |  |   |                    |    |  |     |
  /    /  /   /                    /    /  /     /

  Q.   E +Q   E E    E E E E E E E E   +E  Q.   +Q    Q
|------------------|-----------------|-------------------*|
|------------------|-----------------|-------------------*|
|------------------|-----------------|-------------------*|
|------9-(9)----9\-|-4-2---2---------|-------------------*|
|-9----7-(7)--9----|-----4---4-2-0-2-|-(2)-4----(4)\-----*|
|-7-----------7----|---------------0-|-(0)-2----(2)\-----*|





Comments


Popular Metallica tabs & chords
Blitzkrieg Bass Tabs
Cunning Stunts 1 Bass Tabs
Linux And Lucy Bass Tabs
I Disappear Drum Tabs
Damage, Inc 2 Tabs
Ecstasy Of Gold 2 Tabs
Escape 2 Tabs
Pulling Teeth Tabs
Purify 1 Tabs
The Four Horsemen Tabs


Song lyrics



↑ Back to top | Tablatures and chords are parodies/interpretations of the original songs. You may use it for private study, scholarship, research or language learning purposes only
© 2014 AZChords.com Contact us | Privacy policy | DMCA | Add/correct tabs | Request tabs | Top 50 tabs