» » »

Invisible Kid Tabs (ver.2)

Artists:  A B C D E F G H I J K L M N O P Q R S T U V W X Y Z # 

Invisible Kid Tabs (ver.2)

Metallica
Rating:
0/5 (0 votes)

Hard to play? Try these video lessons and learn fast.
                METALLICA : INVISIBLE KID


Standard tuning


Main riff (after 43 sec)

e---------------------------------------------------------------------------
B---------------------------------------------------------------------------
G------5----------------------5----------------------5--------------5-5--7-7
D------5---7------------------5---7------------------5---7----------5-5--7-7
A----------7----------------------7----------------------7------------------
E-5-5-5------5--5-5-5---5-5-5-------5--5-5-5---5-5-5-------5--5-5-5---------



Riff after Main riff

e------------------------------------------------
B------------------------------------------------
G-2-2---5---2-------2-2-----------------5-5---7-7
D-2-2---5---2---5---2-2  repeat 3 times 5-5---7-7
A---------------5--------------------------------
E------------------------------------------------
 
This is my very first tab, it sounds quite allright but i'm not sure about the second riff. 
            
Hard to play? Try these video lessons and learn fast. | Correct




comments powered by Disqus
↑ Back to top | Tablatures and chords are parodies/interpretations of the original songs. You may use it for private study, scholarship, research or language learning purposes only