» » »

Metallica, Imperial March Tabs (ver.2)

Artists:  A B C D E F G H I J K L M N O P Q R S T U V W X Y Z # 

Imperial March Tabs (ver.2)

Metallica Tabs
 Rating:
4/5 (4 votes)
Imperial March lessons Tabs too difficult? Try these video lessons and learn fast
1
                Tuning: Drop D


the 101 is read 1p0h1, the first two notes are sixteenth notes.

e|-----------------------------------------|
B|-----------------------------------------|
G|-----------------_3_-------_3_-----------|
D|-4---------4-----007-4-----007-4---------|
A|-4-----_3_-4-----007-4-----007-4---------|
D|-4-----444-4-----007-4-----007-4---------|

e|-----------------------------------------|
B|-----------------_3_---------------------|
G|-6---------6-----77--------_3_-----------|
D|-6-----_3_-6-----777-3-----007-4---------|
A|-4-----444-4-----557-3-----007-4---------|
D|-------------------7-3-----007-4---------|

e|-----------------------------------------|
B|-----------------------------------------|
G|-----------------------------------------|
D|-4---------AH----_3_--ph-------------_3_-|
A|-4-----_3_<4>----332-101-------3-----332-|
D|-4-----444-------------------3-----------|

e|-----------------------------------------|
B|-----------------------------------------|
G|------------------_3_------_3_-----------|
D|--ph-------3------007-4----007-4---------|
A|-101-------3------007-4----007-4-----_3_-|
E|---------0-3------007-4----007-4-----444-|

Repeat it for as long as you want.
And, yeah this is my first tab.
            
Submit corrections

comments powered by Disqus
↑ Back to top | Metallica Tabs for Imperial March. Lyrics for acoustic guitar and electric guitar. 1 Tablatures and chords are parodies/interpretations of the original songs. You may use it for private study, scholarship, research or language learning purposes only