» » »

Hell And Back Tabs (ver.3)

Artists:  A B C D E F G H I J K L M N O P Q R S T U V W X Y Z # 

Hell And Back Tabs (ver.3)

Metallica
Rating:
0/5 (0 votes)

Hard to play? Try these video lessons and learn fast.
                -------------------------------------------------------------------------------
                             Hell and Back - Metallica
-------------------------------------------------------------------------------

Tuning:Standard          Enjoy!

Intro - Clean                                        *Repeat 3 times
e|-----------------------------------------------------------------:----------|
B|-----------------------------------------------------------------:----------|
G|-----------------------------------------------------------------:----------|
D|---------2--2---2----2----2--2---2---2---2---2---2---2---3---2---:----------|
A|---------3--2---3----3----2--3---3---2---3---2---3---2-----------:----------|
E|--0--------------------------------------------------------------:----------|

Distort 
e|----------------------------------------------------------------------------|
B|----------------------------------------------------------------------------|
G|---8---8---8---8---8---8------5-5-5-5-5-5-5-5---4-4-4-4-4-4-4-4-------------|
D|---8---8---8---8---8---8------5-5-5-5-5-5-5-5---4-4-4-4-4-4-4-4-------------|
A|---6---6---6---6---6---6------3-3-3-3-3-3-3-3---2-2-2-2-2-2-2-2-------------|
E|---6---6---6---6---6---6------3-3-3-3-3-3-3-3---2-2-2-2-2-2-2-2-------------|

e|----------------------------------------------------------------------------|
B|----------------------------------------------------------------------------|
G|--7-7-7-7-7-7-7-7---4-4-4-4-4-4-4-4---7-7-7-7-7-7-7-7----8--8---8--8-8------|
D|--7-7-7-7-7-7-7-7---4-4-4-4-4-4-4-4---7-7-7-7-7-7-7-7----8--8---8--8-8------|
A|--5-5-5-5-5-5-5-5---2-2-2-2-2-2-2-2---5-5-5-5-5-5-5-5----6--6---6--6-6------|
E|--5-5-5-5-5-5-5-5---2-2-2-2-2-2-2-2---5-5-5-5-5-5-5-5----6--6---6--6-6------|
                            *Repeat 4 times
e|------------------------------------------:---------------------------------|
B|------------------------------------------:---------------------------------|
G|------------------------------------------:----------------------5--5--4--5-|
D|------------------------------------------:-----------2----------5--5--4--5-|
A|------------------------------------------:-----------2----------3--3--2--3-|
E|-/7--7-5h7h5\3--5--0---0--0--0--3h5-0--0--:--12\\\----0--0--0---------------|
                                                   
e|-------------------------------------------------:--------------------------|
B|-------------------------------------------------:--------------------------|
G|-4--5--4--4----------------5--5--4--5--4---10-9--:--------------------------|
D|-4--5--4--4-----2----------5--5--4--5--4---10-9--:--------------------------|
A|-2--3--2--2-----2----------3--3--2--3--2---8--7--:--------------------------|
E|----------------0--0--0--------------------------:--------------------------|
 Verse      *Repeat Clean Intro 6 times for verse        *Clean
e|------------------------------------------------------:-------------------------------|
B|------------------------------------------------------:-------------------------------|
G|------------------------------------------------------:-----------5--4--5--4--5--4--4-|
D|------------------------------------------------------:-------------------------------|
A|------------------------------------------------------:-----------3--2--3--2--3--2--2-|
E|------------------------------------------------------:--0---0-0----------------------|
                                                                    when the sun goes hell-bound...
e|---------------------------------------------------------------------------|
B|---------------------------------------------------------------------------|
G|----------5--4--5--4--5--4--4---------------5--4--5--4---------------------|
D|---------------------------------------------------------5--2--------------|
A|----------3--2--3--2--3--2--2---------------3--2--3--2---------------------|
E|-0---0-0--------------------------0---0-0----------------3--0--------------|

Chorus is the distorted part of the intro.

For timing listen to song.

Sorry i couldn't put up the whole thing...ran out of time.


Thanks for reading!! 

  
************************************

| /   slide up
| \   slide down
| h   hammer-on
| p   pull-off
| ~   vibrato
| +   harmonic
| x   Mute note
| b   Bend
| pb  Pre-bend
| br  Bend release
| pbr Pre-bend release
| brb Bend release bend

************************************
            
Hard to play? Try these video lessons and learn fast. | Correct




comments powered by Disqus
↑ Back to top | Tablatures and chords are parodies/interpretations of the original songs. You may use it for private study, scholarship, research or language learning purposes only