» » »

Green Hell Tabs (ver.1)

Artists:  A B C D E F G H I J K L M N O P Q R S T U V W X Y Z # 

Green Hell Tabs (ver.1)

Metallica
Rating:
0/5 (0 votes)

Tabs too difficult? Try these video lessons and learn fast.
                
Riff #1
      s  s  s  s  s  s  s  s  s  s  s  s  s  s  s  s  s  s  s  s  s  s
||----------------------------------------------------------------------||
||----------------------------------------------------------------------||
||*--------------------------------------------------------------------*||
||*--------------------------------------------------------------------*||
||----------------------------------------------------------------------||
||---3--3--3--3--3--3--3--3--3--3--3--3--3--3--3--3--3--3--3--3--3--3---||
                                                                               

   Riff #2
      s  s  s  s  s  s  s  s     e  e     e  e
||-----------------------------------------------||
||-----------------------------------------------||
||*---------------------------------------------*||
||*---------------------------------------1-----*||
||-------------------------------1-----------3---||
||----3--3--3--3--3--3--3--3--------3------------||
                                                                               

 Riff #3
|---------------------------|
|---------------------------|
|---5--5--5--5--5--5--5--5--|
|---5--5--5--5--5--5--5--5--|
|---3--3--3--3--3--3--3--3--|
|---------------------------|
                                                                               

Riff #4                     Riff #5
-------------------------|---------------------------|
-------------------------|---------------------------|
-------------------------|---------------------------|
-5--5--5--5--5--5--5--5--|---2--2--2--2--2--2--2--2--|
-5--5--5--5--5--5--5--5--|---2--2--2--2--2--2--2--2--|
-3--3--3--3--3--3--3--3--|---0--0--0--0--0--0--0--0--|
            
Tabs too difficult? Try these video lessons and learn fast.




comments powered by Disqus
↑ Back to top | Tablatures and chords are parodies/interpretations of the original songs. You may use it for private study, scholarship, research or language learning purposes only