» » »

Metallica, Fuel Tabs (ver.2)

Artists:  A B C D E F G H I J K L M N O P Q R S T U V W X Y Z # 

Fuel Tabs (ver.2)

Metallica Tabs
 Rating:
4/5 (4 votes)
Fuel lessons Tabs too difficult? Try these video lessons and learn fast
                (Correct)
h    -hammer on
p    -pull off
/    -slide
~    -vibrate string (or use tremolo)
p.m. -palm mute
^    -bend


Tune all guitars down 1/2 step

Gimme fuel
gimme fire
gimme that wich I desire

Ab-2---2-2---2-2-2---2-2---2-2-2---2-2---2-2-2---2-2---2-2-2---2-2---2-2-|--------|
Eb-3p0-0-3p0-0-0-3p0-0-3p0-0-0-3p0-0-3p0-0-0-3p0-0-3p0-0-0-3p0-0-3p0-0-0-|5-5-5-3-|2x
          

Db-----7-7-7-5----|-----|
Ab-5h7----------7-|-5h7-|
         4x

Ab-2---2-2---2-2-2---2-2---2-2-|
Eb-3p0-0-3p0-0-0-3p0-0-3p0-0-0-|
                

gb--------|
Db--------|
Ab-2---5--|
Eb-0---3--|


gb-------14-14-14-12----------14-14-14-12----|
Db-12h14-14-14-14-12-14-12h14-14-14-14-12-14-|
Ab-12h14-------------14-12h14-------------14-|



Db-----4---3---2---|-----7-7-7-5----|-----|
Ab-2---2---1---0---|-5h7----------7-|-5h7-|
Eb-0---------------|----------------|-----|
                           4x

Ab-2---2-2---2-2-2---2-2---2-2-|
Eb-3p0-0-3p0-0-0-3p0-0-3p0-0-0-|
                

gb--------|
Db--------|
Ab-2---5--|
Eb-0---3--|


gb-------14-14-14-12----------14-14-14-12----|
Db-12h14-14-14-14-12-14-12h14-14-14-14-12-14-|
Ab-12h14-------------14-12h14-------------14-|




Db-----4---3---2---|-----7-7-7-5----|-----|
Ab-2---2---1---0---|-5h7----------7-|-5h7-|
Eb-0---------------|----------------|-----|
                           4x

Ab-2---2-2---2-2-2---2-2---2-2-|
Eb-3p0-0-3p0-0-0-3p0-0-3p0-0-0-|
                

  Coro:

Db-----------------------------|
Ab-7p5---7---7p5---7---7p5---7-|
Eb-----7---------7---------7---|
               6x

Ab-2---2-2---2-2-2---2-2---2-2-|
Eb-3p0-0-3p0-0-0-3p0-0-3p0-0-0-|
                

So gimme fuel
gimme fire
gimme that wich I desire


Ab-----------------------------2---2-2---2-2-2---2-2---2-2-2---2-2---2-2-|--------|
Eb-3p0-0-3p0-0-0-3p0-0-3p0-0-0-3p0-0-3p0-0-0-3p0-0-3p0-0-0-3p0-0-3p0-0-0-|5-5-5-3-|

Ab-2---2-2---2-2-2---2-2---2-2-2---2-2---2-2-2---2-2---2-2-2---2-2---2-2-|--------|
Eb-3p0-0-3p0-0-0-3p0-0-3p0-0-0-3p0-0-3p0-0-0-3p0-0-3p0-0-0-3p0-0-3p0-0-0-|5-5-5-3-|
                          

Db-----7-7-7-5----|-----|
Ab-5h7----------7-|-5h7-|
         4x

Ab-2---2-2---2-2-2---2-2---2-2-|
Eb-3p0-0-3p0-0-0-3p0-0-3p0-0-0-|
                

gb--------|
Db--------|
Ab-2---5--|
Eb-0---3--|


gb-------14-14-14-12----------14-14-14-12----|
Db-12h14-14-14-14-12-14-12h14-14-14-14-12-14-|
Ab-12h14-------------14-12h14-------------14-|


Db-----4---3---2---|-----7-7-7-5----|-----|
Ab-2---2---1---0---|-5h7----------7-|-5h7-|
Eb-0---------------|----------------|-----|
                           4x

Ab-2---2-2---2-2-2---2-2---2-2-|
Eb-3p0-0-3p0-0-0-3p0-0-3p0-0-0-|
                

gb--------|
Db--------|
Ab-2---5--|
Eb-0---3--|


gb-------14-14-14-12----------14-14-14-12----|
Db-12h14-14-14-14-12-14-12h14-14-14-14-12-14-|
Ab-12h14-------------14-12h14-------------14-|


Db-----4---3---2---|-----7-7-7-5----|-----|
Ab-2---2---1---0---|-5h7----------7-|-5h7-|
Eb-0---------------|----------------|-----|
                           4x

Ab-2---2-2---2-2-2---2-2---2-2-|
Eb-3p0-0-3p0-0-0-3p0-0-3p0-0-0-|
                
  Coro:

Db-----------------------------|
Ab-7p5---7---7p5---7---7p5---7-|
Eb-----7---------7---------7---|
               6x


Ab-2---2-2---2-2-2---2-2---2-2-|
Eb-3p0-0-3p0-0-0-3p0-0-3p0-0-0-|
                

So gimme fuel
gimme fire
gimme that wich I desire

Db-7-7-7-5---------7-7-7-5-------|
Ab-7-7-7-5-2-2-2-2-7-7-7-5-2-2---|
Eb---------0-0-0-0---------0-0-3~|4x
 p.m.      . . . .         . .


gb-14-14-14-12-------12-----14-14-14-12-------12~-|
Db-14-14-14-12-12h14----14~-14-14-14-12-12h14-----|4x



  Solo:

gb-------14-14-14-12-----------14-14-14-12----------14-14-14-12---------|
Db-12h14-------------14-12h14-------------14-12h14-------------14-12h14-|

gb-14^-12-14^-12-14^-|
Db-------------------|

eb-12-----12-----15^-15-14-15-14----14-------------------------------------------|
bb----15^----15^-----------------15----15----------------------------15p14-------|
gb----------------------------------------14-------------------------------16/18-|
Db-------------------------------------------14-------12----12-14/16-------------|
Ab----------------------------------------------12-14----14----------------------|

eb-------------------15-17^-17-15----|
bb-------------15-17--------------17-|
gb-------14-16-----------------------|
Db-14-17-----------------------------|

eb---------------------------------------------------------------12-16--16-16-16-|
bb-12/14-12--12/14-12---------------------12/14-12--12/14-12-/14-12-17--17-17-17-|
gb-12/14-12--12/14-12---------------------12/14-12--12/14-12-/14-----------------|
Db---------------------7^7^7^7^p5------------------------------------------------|
Ab--------------------------------7p5h7------------------------------------------|

gb-9-|---------------------|
Db---|-12-9-12^---12-9-----|
Ab---|-----------------12^-|
                4x

bb----------------------------------------|-12/17~-|
gb----11-12----11-12----11-12/14-12-11-12-|--------|
Db-14-------14-------14-------------------|--------|
                    4x

Ab-2---2-2---2-2-2---2-2---2-2-2---2-2---2-2-2---2-2---2-2-2---2-2---2-2-|--------|
Eb-3p0-0-3p0-0-0-3p0-0-3p0-0-0-3p0-0-3p0-0-0-3p0-0-3p0-0-0-3p0-0-3p0-0-0-|5-5-5-3-|
                

Db-----7-7-7-5----|-----|
Ab-5h7----------7-|-5h7-|
         4x
            
Submit corrections

comments powered by Disqus
↑ Back to top | Metallica Tabs for Fuel. Lyrics for acoustic guitar and electric guitar. Tablatures and chords are parodies/interpretations of the original songs. You may use it for private study, scholarship, research or language learning purposes only