>
 >
Fixxxer 2

Fixxxer 2 Guitar Tabs

Metallica - Fixxxer 2 chords, tabs, tablatures, lyrics

Guitar lessons | Add/correct | Request | Top 50 tabs Artists:  A B C D E F G H I J K L M N O P Q R S T U V W X Y Z 0-9

Fixxxer 2 Guitar Tabs – Metallica

CD, Sheet music, Poster

Do you like Fixxxer 2? Share with your friends now
Bass TabsBass Tabs v2TabsTabs v2Tabs v3
This is like, one big song to tab cause of the different riffs, its fairly
down to earth though, nothing too hard, you will need a
decend whammy pedel.
All the double staves have Kirk (lead) on the top and James (rhythm)
On the bottom.  
Guitars are tuned down 1/2 a step.

(intro)     4th time w/fillB     2nd & 5th times w/fillA       
I----------------0-0-13v-------|----------------0-0-13v-------|----------------
I-/17v----15-17----------11-10-|-/17v----15-17----------11-10-|-/17v----15-17--
I---------------\9-9-----------|---------------\9-9-----------|----------------
I------------------------------|------------------------------|---------------- 
I------------------------------|------------------------------|----------------
I------------------------------|------------------------------|----------------
I all v's in the first bar are
I with the w/bar.                                                           
I
I-----------------------------|-----------------------------|------------------
I-----------------------------|-----------------------------|------------------
I-----------------------------|-----------------------------|------------------ 
I-------/6--------------------|-------/6--------------------|-------/-6--------
I-------/8-4-3--/10-10v--8h10-|-------/8-4-3--/10-10v--8h10-|-------/-8--------
I-3-3-3----6-5--/12-12v-10h12-|-3-3-3----6-5--/12-12v-10h12-|-3-3-3------------
                                                                              
(fillA) both guitars
-/11b--------|----------------------------------------------------------------
-/11b--------|----------------------------------------------------------------
-------------|----------------------------------------------------------------
-------------|----------------------------------------------------------------
-------------|----------------------------------------------------------------
-------------|----------------------------------------------------------------
w/delay                                            

(fillB)
-/14b--|-/11b-----------------------------------------------------------------
-------|----------------------------------------------------------------------
-------|----------------------------------------------------------------------
-------|----------------------------------------------------------------------
-------|----------------------------------------------------------------------
-------|----------------------------------------------------------------------
 kirk     james                                                                                                

-----------------|-----------------|-----------------|-----------------|------
-----------------|-----------------|-----------------|-----------------|------
-----------------|-----------------|-----------------|-----------------|------
-----------------|-x-------5h7--5v-|-----------------|---5h7--5v-------|------
-5h7v---------7\-|-----------------|-5h7v---------7\-|-x---------------|------
-----------------|-----------------|-----------------|-----------------|------
 w/distortion, use a wah as a filter.                   play twice then play       

-----------------|-----------------|-----------------|-----------------|------
-----------------|-----------------|-----------------|-----------------|------
-----------------|-----------------|-----------------|---5-------------|------
-----------------|-x-------5h7--5v-|-----------------|-----7-5b----5v--|------
-5h7v---------7\-|-----------------|-5h7v---------7\-|-x---------------|------
-----------------|-----------------|-----------------|-----------------|------
                                                                              

-----------------|-----------------|-----------------|-------x-x-x-x---|------
-----------------|-----------------|-----------------|-------x-x-x-x---|------
-----------------|-----------------|-----------------|-------x-x-x-x---|------
---------5-------|-x--x--x-x----x--|---------5-------|-x--x------------|------
-5h7-x-x---7v--\-|-x--x--x-x----x--|-5h7-x-x---7v--\-|-x--x------------|------
-----------------|-x--x--x-x----x--|-----------------|-x--x------------|------
                                                                              

-----------------|-----------------|------------------|-----------------|-----
-----------------|-----------------|------------------|-----------------|-----
-----------------|---------5-------|------------------|-----------------|-----
---------5-------|---------5-------|---------5b-------|-----------------|-----
-5h7-x-x---7v--\-|-5h7-x-x---7v--5-|-5h7-7-7----7-7-7-|-5-7---5---------|-----
-----------------|-----------------|------------------|-----8---7-8-5-7-|-----
                                                                              
(main riff)
-----------------|-----------------|-----------------|-----------------|------
-----------------|-----------------|-----------------|-----------------|------
-----------------|-----------------|-----------------|-----------------|------
-----------------|-----------------|-----------------|-----4h5-7v------|------
-----/7p5---7v---|-7-7\--------8v--|-----/7p5---7v---|-7-------5v------|------
-0-0-------------|------/6p5-6-----|-0-0-------------|-----------------|------
                                                        play twice, then play                            

-----------------|-----------------|-----------------|-----------------|------
-----------------|-----------------|-----------------|-----------------|------
-----------------|-----------------|-----------------|-----------------|------
-----------------|--------------7v-|-----------------|----7h9----------|------
-----/10p9-10v---|-10-10\/5p4-5----|-----/10p9-10v---|-10-----9v-------|------
-0-0-------------|-----------------|-0-0-------------|-----------------|------
                                                                              
(first verse)
---------------------------|---------------------------|----------------------
---------------------------|---------------------------|----------------------
----------9----------------|--------------9------------|----------------------
----------9----------------|--------------9------------|----------------------
-9h10--7--7--------------7-|-10p9--7------7---7--7-----|----------------------
---------------------10----|---------------------------|----------------------
      p.m            p.m..                    p.m.                 

---------------------------|---------------------------|----------------------
---------------------------|---------------------------|----------------------
----------9----------------|-------9b-----7v-----------|----------------------
----------9----------------|-------9b-----7v-----------|----------------------
-9h10--7--7--------------7-|-10p9--5b-----5v-----------|----------------------
---------------------10----|---------------------------|----------------------
      p.m            p.m..                                                    

---------------------------|---------------------------|----------------------
---------------------------|---------------------------|----------------------
----------9----------------|--------------9------------|----------------------
----------9----------------|--------------9------------|----------------------
-9h10--7--7--------------7-|-10p9--7------7---7--7-----|----------------------
---------------------10----|---------------------------|----------------------
      p.m            p.m..                    p.m.                            

---------------------------|---------------------------|----------------------
---------------------------|---------------------------|----------------------
----------9----------------|---------------------------|----------------------
----------9----------------|---------------------------|----------------------
-9h10--7--7--------------7-|-10p9--5-/-7-\-5v-------5--|----------------------
---------------------10----|---------------------------|----------------------
      p.m            p.m..                                                    

(pre-chorus)
---------------------------|---------------------------|----------------------
---------------------------|---------------------------|----------------------
----------7----------------|--------------7------------|----------------------
----------7----------------|--------------7------------|----------------------
-7h8---5--5--------------5-|-8p7---5------5---5--5-----|----------------------
----------------------8----|---------------------------|----------------------
      p.m             p.m.                    p.m.                

---------------------------|---------------------------|----------------------
---------------------------|---------------------------|----------------------
----------7----------------|---------------------------|----------------------
----------7----------------|---------------------------|----------------------
-7h8---5--5--------------5-|-8p7---3-/-5-\-3v-------3--|----------------------
----------------------8----|---------------------------|----------------------
      p.m             p.m.                                                    

---------------------------|---------------------------|----------------------
---------------------------|---------------------------|----------------------
----------7----------------|--------------7------------|----------------------
----------7----------------|--------------7------------|----------------------
-8p7---5--5--------------5-|-8p7---5------5---5--5-----|----------------------
----------------------8----|---------------------------|----------------------
      p.m             p.m.                    p.m.                            

---------------------------|---------------------------|----------------------
---------------------------|---------------------------|----------------------
----------7----------------|---------------------------|----------------------
----------7----------------|-5v------------------------|----------------------
-7h8---5--5-----------7h8--|---------------------------|----------------------
---------------------------|-----------------------x\--|----------------------
                                                                              
(chorus)
I-------------------|---------------|--------------------|---------------|-----
I-------------------|---------------|--------------------|---------------|-----
I----------7--------|-7-------------|---------7----------|-7-------------|----- 
I-------5-----------|---------------|------5-------------|---------------|-----
I----7--------------|---------------|---7----------------|---------------|-----
I-0-----------------|---------------|-0------------------|---------------|-----
I                                                                         
I
I-------------------|---------------|--------------------|---------------|-----
I-------------------|---------------|--------------------|---------------|-----
I-------------------|---------------|--------------------|---------------|----- 
I-------------------|---------------|--------------------|-----5-7-7b-5--|-----
I-------------------|---------------|-2------------------|-5h7-----------|-----
I-0-----------------|-0----------x\-|-0------------------|---------------|-----
                                                                          

I-------------------|---------------|--------------------|---------------|-----
I-------------------|---------------|--------------------|---------------|-----
I------------7------|-7-------------|-------7------------|---------------|----- 
I---------5---------|---------------|----7-----7---------|-7-------------|-----
I----5/7------------|---------------|-5------------------|---------------|-----
I-3-----------------|---------------|--------------------|---------------|-----
I                                                                         
I
I-------------------|---------------|--------------------|---------------|-----
I-------------------|---------------|--------------------|---------------|-----
I-------------------|---------------|-7------------------|---------------|----- 
I-5-----------------|-----5-7-7b-5--|-7------------------|-----5-7-7b-5--|-----
I-5-----------------|-5h7-----------|-5------------------|-5h7-----------|-----
I-3-----------------|---------------|--------------------|---------------|-----
                                                                          

I-------------------|---------------|--------------------|---------------|-----
I-------------------|---------------|--------------------|---------------|-----
I-------5-----------|-4-------------|--------------------|---------------|----- 
I----5-----5--------|---------------|--------------------|---------------|-----
I-3-----------------|---------------|--------------------|---------------|-----
I-------------------|---------------|--------------------|---------------|-----
I                                                                         
I
I-------------------|---------------|--------------------|---------------|-----
I-------------------|---------------|--------------------|---------------|-----
I-5-----------------|-4-------------|--------------------|---------------|----- 
I-5-----------------|-4-------------|--------------------|---------------|-----
I-3-----------------|-2-------0-----|--------------------|---------------|-----
I-------------------|------------3--|--------------------|---------------|-----
                                                                          
(interlude)
----------------------|--------------|---------------------|--------------|---
----------------------|--------------|---------------------|--------------|---
----------------------|--------------|---------------------|--------------|---
----------------------|--------------|---------------------|--------------|---
----------------------|--------------|---------------------|--------------|---
-0--------------------|-0------------|-0-------------------|-0------------|---
 all of the 0's here are dipped with the w/bar                 

I-------------------|----------------|-------------------|-------------------|-
I-------------------|----------------|-------------------|-------------------|-
I----------12-------|-------------13-|----------12-------|-------------13-13-|- 
I-12-14v---12-14v---|-14----x-x-x----|-12-14v---12-14v---|-------x-x-x-------|-
I-12-14v------14v---|-14----x-x-x----|-12-14v------14v---|-------x-x-x-------|-
I-------------------|----------------|-------------------|-12-12-------------|-
I                                                                          
I
I-------------------|----------------|-------------------|-------------------|-
I-------------------|----------------|-------------------|-------------------|-
I----------12-------|----------------|----------12-------|-------------------|- 
I-12-14v---12-14v---|-14-------------|-12-14v---12-14v---|-14--------------0-|-
I-12-14v------14v---|-14-------------|-12-12v------14v---|-14--------------0-|-
I-------------------|----------------|-------------------|-------------------|-
                                                                         

I-------------------|-----------------|-------------------|---------------12-|-
I-------------------|-----------------|-------------------|------------------|-
I----------12-------|----------12-----|---------12--------|------------------|- 
I-12-14v---12-14v---|-12-14v---12-14v-|-12-14---12-14---\-|------------------|-
I-12-14v------14v---|-12-14v------14v-|-12-14------14---\-|------------------|-
I-------------------|-----------------|-------------------|------------------|-
I                                                                          
I
I-------------------|-----------------|-------------------|------------------|-
I-------------------|-----------------|-------------------|------------------|-
I----------12-------|----------12-----|-------------------|------------------|- 
I-12-14v---12-14v---|-12-14v---12-14--|----------5--------|------------------|-
I-12-14v------14v---|-12-14v------14-12\5--7-----5--7-----|-5-7---5---8------|-
I-------------------|----------------12\5--7--------7-----|-----8---7---5-7\-|-
                                                                         

I-12--/14v----------|-14----------14\-|-12--/14v----------|-14-----------14\-|-
I-12--/14v----------|-14----------14\-|-12--/14v----------|-14-----------14\-|-
I-------------------|-----------------|-------------------|------------------|- 
I-------------------|-----------------|-------------------|------------------|-
I-------------------|-----------------|-------------------|------------------|-
I-------------------|-----------------|-------------------|------------------|-
I                                                                          
I
I-------------------|-----------------|-------------------|------------------|-
I-------------------|-----------------|-------------------|------------------|-
I-------------------|-----------------|-------------------|------------------|- 
I-------------------|-----------------|-------------------|-----6h7-9------\-|-
I-----/9p7--9-------|-9-9\--------10\-|-----/9p7--9-------|-9-9-----7------\-|-
I-2-2---------------|------/8p7-8-----|-2-2---------------|------------------|-
                                                                         

I-12--/14v----------|-14----------14\-|-12--/14v----------|-14-14/-21\-------|-
I-12--/14v----------|-14----------14\-|-----/14v----------|-14-14/-----------|-
I-------------------|-----------------|-------------------|------------------|- 
I-------------------|-----------------|-------------------|------------------|-
I-------------------|-----------------|-------------------|------------------|-
I-------------------|-----------------|-------------------|------------------|-
I                                                                          
I
I-------------------|-----------------|-------------------|------------------|-
I-------------------|-----------------|-------------------|------------------|-
I-------------------|-----------------|-------------------|------------------|- 
I-------------------|-----------------|-------------------|-----6h7-9--------|-
I-----/9p7--9-------|-9-9\--------10\-|-----/9p7--9-------|-9-9-----7----7\5-|-
I-2-2---------------|------/8p7-8-----|-2-2---------------|------------------|-
                                                                         
(both play this)
-10--/12v----------|-12--------------|-10--/12v----------|-12-15-\-14v--14\-|-
-10--/12v----------|-12---------\10--|-10--/12v----------|-12---------------|-
-------------------|-----------------|-------------------|------------------|-
-------------------|-----------------|-------------------|------------------|-
-------------------|-----------------|-------------------|------------------|-
-------------------|-----------------|-------------------|------------------|-
                                                              

-10--/12v----------|-12--------------|-10--/12v----------|-12---------------|-
-10--/12v----------|-12--------------|-10--/12v----------|-12---------------|-
-------------------|----12\11/12v-12-|-------------------|--------7-7/14\---|-
-------------------|-----------------|-------------------|----14\-----------|-
-------------------|-----------------|-------------------|------------------|-
-------------------|-----------------|-------------------|------------------|-
                                                                              

-------------------|-----------------|-------------------|-----5/7----------|-
-------8\7/8-------|-8\---------/10--|------8\7/8--------|-8\5-----7-----7\-|-
-------------------|----/7\6/7\------|-0-0---------------|------------------|-
-------------------|-----------------|-------------------|------------------|-
-------------------|-----------------|-------------------|------------------|-
-0-0---------------|-----------------|-------------------|------------------|-
                                                                              

------15\14/15v----|-15\12/15-----------/17-|---------------------------------
-------------------|----------15\14-15\-----|---------------------------------
-------------------|------------------------|---------------------------------
-------------------|------------------------|---------------------------------
-------------------|------------------------|---------------------------------
-0-0---------------|------------------------|---------------------------------
                                                                              
there is 2 guitars on this staff, kirk plays w/slide, james w/out slide
-------------------|---------------|------------|------------|----------------
-------------------|---------------|--12\11/12--|--12\11/12--|----------------
------12\11---12v--|------12\11/12-|------------|------------|----------------
-------------------|---------------|------------|------------|----------------
-----/7p-5----7v---|-----/7p-7--7v-|-/10p-9-10v-|-/14p12-14\-|----------------
-0-0---------------|-0-0-----------|------------|------------|----------------
       

(solo)
-----14b-14b-14b-|-14b-14b-14b-14b-14b-|-14b-----------14-------|-------------
-17b-17b-17b-17b-|-17b-17b-17b-17b-17b-|-17b-17p14-17b----17p14-|-------------
-----------------|---------------------|------------------------|-------------
-----------------|---------------------|------------------------|-------------
-----------------|---------------------|------------------------|-------------
-----------------|---------------------|------------------------|-------------
 use wah as filter..........................         all b's are full         

-17b-17/19b-17v---|-------------------------|------------------------|--------
------------------|--------------16b--14----|--------------16b-14----|--------
------------------|-----------14-16b--14----|-----------14-16b-14----|--------
------------------|-----14-16------------16-|-----14-16-----------16-|--------
----------------0-|-/16---------------------|-/16--------------------|--------
------------------|-------------------------|------------------------|--------
                                                                              

-------------------------|---------------------|------------------------------
--------------16b-14-16b-|-16-14-16b-14-16b-14-|------------------------------
-----------14-16b-14-16b-|-16-14-16b-14-16b-14-|------------------------------
-----14-16---------------|---------------------|------------------------------
-/16---------------------|---------------------|------------------------------
-------------------------|---------------------|------------------------------
                                                                              

I-------------------------|---------------------|------------------------------
I-------------------------|-17b-----------------|------------------------------
I------------14-----------|-16b-----------------|-----------14----------------- 
I--14---16v------16v------|---------------------|-14---16v------16v------------
I-------------------------|---------------------|------------------------------
I-------------------------|---------------------|------------------------------
I                                                                         
I
I-------------------------|---------------------|------------------------------
I-------------------------|---------------------|------------------------------
I-------------2-----------|---------------------|------------2----------------- 
I-2-4---------2--4--------|-4-------------------|-2-4--------2--4--------------
I-2-4------------4--------|-4-------------------|-2-4-----------4--------------
I-------------------------|---------------------|------------------------------
                                                                         

I-------------------------|----------|----------|------------------------|-----
I-----17-----17-17b-------|----------|----------|------------------------|-----
I-16b----16b----16b-16p14-|----------|----------|------------------------|----- 
I-------------------------|-14v------|-14v------|-14--14\9--9------------|-----
I-------------------------|----------|----------|------------------------|-----
I-------------------------|----------|----------|------------------------|-----
I hold all bends                                                           
I
I-------------------------|----------|----------|------------------------|-----
I-------------------------|----------|----------|------------------------|-----
I-------------------------|----------|----------|------------------------|----- 
I-4-----------------------|----------|----------|------------------------|-----
I-4-----------------------|----------|----------|------------------------|-----
I-------------4p0-0----0--|-0--------|-0--------|-0----------------------|-----
             p.m.......        w/bar       w/bar                         

Both guitars
-------------------------|---------------------|------------------------------
-------------------------|---------------------|------------------------------
-------------------------|---------------------|------------------------------
-------------------------|---------------------|------------------------------
-------------------------|----------7-7--------|------------------------------
-0-----------------------|-0-----2/-----7------|------------------------------
                                    N.H..                                     

-------------------------|---------------------|---------------------------|--
-------------------------|---------------------|---------------------------|--
-------------------------|---------------------|---------------------------|--
-------------------------|--x--5h7----5v-------|---------------------------|--
-5h7v-------------7-\----|---------------------|-5--7v------------------7\-|--
-------------------------|---------------------|---------------------------|--
                                                                              

-------------------------|------------------|----------------------------|----
-------------------------|------------------|----------------------------|----
-------------------------|------------------|----------------------------|----
--------5h7--5b------v---|------5h7-7b-5v---|----------5b----------------|----
-\0--x-------------------|-\0-x-------------|-5h7v---------7v---------7\-|----
-------------------------|------------------|-------0--------------------|----
                           2nd time play this                                 

Use wah as a filter again, and play this about 8 times.                      
----------------------|------------------------|------------------------------
----------------------|------------------------|------------------------------
----------------------|------------------------|------------------------------
----------------------|------------------------|------------------------------
-5h7--x--x--x--x--5h7-|-x--x--x--x--x--x--x--x-|------------------------------
----------------------|------------------------|------------------------------


---------------------|----------------------|----------------------|----------
---------------------|----------------------|----------------------|----------
---------------x-x-x-|----------------------|----------------------|----------
---------------x-x-x-|--------------5b------|---------5--7b--7b-7v-|----------
-0-x-x-x-x--x--x-x-x-|-5--7-------------7v--|-0--5--7--------------|----------
---------------------|-------0--0-----------|----------------------|----------
                             p.m.                                             

---------------------|----------------------|----------------------|----------
---------------------|----------------------|----------------------|----------
---------------------|----------------------|----------------------|----------
-------------5b------|-----5-----5h7--5v----|------------5b--------|----------
-5--7--x--x------7v--|-/7-----7-------------|-5--7--x--x-----7v----|----------
---------------------|----------------------|----------------------|----------
                                                                              

---------------------|----------------------|----------------------|----------
---------------------|----------------------|----------------------|----------
---------------------|----------------------|----7--7--7v---7h9----|----------
---------------------|----------------5b----|-/9-------------------|----------
-/7-5----------------|-5---7--x---x------7v-|----------------------|----------
-------7--5b----3v---|----------------------|----------------------|----------
                                                   N.H                        

---------------------|----------------------|----------------------|----------
---------------------|----------------------|----------------------|----------
---------------------|----7-9p7---7-9p7-----|----------------------|----------
----------------5b---|-/9-------9-------9-\-|----------5b----------|----------
-5---7--x---x------7-|----------------------|-5-7-x--x------7-x--x-|----------
---------------------|----------------------|----------------------|----------
                                                                              

---------------------|---------------0------|----------------------|----------
---------------------|-----------------0----|----------------------|----------
---------------------|----------------------|----------------------|----------
-----------5b--------|---------5b-----------|----------------------|----------
-5---7-x-x----7-x--x-|-5-7-7-7----7---------|-5-7---5--------------|----------
---------------------|----------------------|-----8---7-8-5-7------|----------
                                                                              
Thats about it really.  The bridge and outro come after this, im sure they are 
just the chorus riff though.  If not get back to me, and I'll sort this tab out.





Comments


Popular Metallica tabs & chords
Hit The Lights Bass Tabs
Damage Inc Drum Tabs
All Nightmare Long Intro Tabs
Better Than You 1 Tabs
Cyanide 1 Tabs
Intro Justice 1 Tabs
Nothing Else Matters Full Version Tabs
Nothing Else Matters Unplugged Tabs
The Call Of The Ktulu 1 Tabs
Whiskey In The Jar 2 Tabs


Song lyrics



↑ Back to top | Tablatures and chords are parodies/interpretations of the original songs. You may use it for private study, scholarship, research or language learning purposes only
© 2014 AZChords.com Contact us | Privacy policy | DMCA | Add/correct tabs | Request tabs | Top 50 tabs