» » »

Devil's Dance Bass tabs (ver.1)

Artists:  A B C D E F G H I J K L M N O P Q R S T U V W X Y Z # 

Devil's Dance Bass tabs (ver.1)

Metallica
Rating:
0/5 (0 votes)

Tabs too difficult? Try these video lessons and learn fast.
                -------------------------------------------------------------------------------
                             Devil's Dance - Metallica
-------------------------------------------------------------------------------
Tuning: half step

:--------------------------------|--------------------------------|
:*-------------------------------|--------------------------------|
:*-------------------------------|--------------------------------|
:-6---\---0-------0-------0---3--|-0-------0---5---3---0---3---5--|

                                                            4 times
|--------------------------------|--------------------------------|
|--------------------------------|-------------------------------*|
|--------------------------------|-------------------------------*|
|-0-------0-------0-------0---3--|-0-------0---5---3---0---3---5--|

|--------------------------------|--------------------------------|
|--------------------------------|--------------------------------|
|--------------------------------|--------------------------------|
|-6---\---0-------0-------0---3--|-0-------0-------0-------0---3--|

|--------------------------------|--------------------------------|
|--------------------------------|*-------------------------------|
|--------------------------------|*-------------------------------|
|-0-------0---5---3---0---3---5--|-6---\---0-------0-------0---3--|

                           2 times
|--------------------------------|--------------------------------|
|-------------------------------*|--------------------------------|
|-------------------------------*|--------------------------------|
|-0-------0---5---3---0---3---5--|-0-------0-------0-------0---3--|

|--------------------------------|--------------------------------|
|--------------------------------|--------------------------------|
|--------------------------------|--------------------------------|
|-0-------0---5---3---0---3---5--|-6---\---0-------0-------0---3--|

|--------------------------------|--------------------------------|
|--------------------------------|--------------------------------|
|--------------------------------|--------------------------------|
|-0-------0---5---3---0---3---5--|-0-------0-------0-------0---3--|

|--------------------------------:
|--------------------------------:
|--------------------------------:
|-0-------0---5--b3---0--b3---0--:

                           3 times
:--------------------------------|--------------------------------|
:*------------------------------*|--------------------------------|
:*------------------------------*|--------------------------------|
:-0-0-0-0----0-0-0-0-0--0--0--0--|-0-0-0-0----0-0-0-0-0-b5-----3--|

|--------------------------------|--------------------------------|
|--------------------------------|--------------------------------|
|--------------------------------|--------------------------------|
|-3-3-3-3------3-3-3-3--3--3--3--|-3-3-3-3------3-3-3-3--3--3--3--|

|--------------------------------|--------------------------------|
|--------------------------------|--------------------------------|
|--------------------------------|--------------------------------|
|-0-0-0-0----0-0-0-0-0--0--0--0--|-0-0-0-0----0-0-0-0-0-00--0--0--|

|--------------------------------|--------------------------------|
|--------------------------------|--------------------------------|
|--------------------------------|--------------------------------|
|-3-3-3-3------3-3-3-3--3--3--3--|-2-2-2-2------2-2-2-2-2--2-2-2--|

|--------------------------------|--------------------------------: 
|--------------------------------|--------------------------------:
|--------------------------------|--------------------------------: 
|-6---\---0-------0-------0---3--|-0-------0---5--b3---0--b3---0--|

                        3 times
:--------------------------------|--------------------------------|
:*------------------------------*|--------------------------------|
:*------------------------------*|--------------------------------|
:-0-0-0-0----0-0-0-0-0--0--0--0--|-0-0-0-0----0-0-0-0-0-b5-----3--|

|--------------------------------|--------------------------------|
|--------------------------------|--------------------------------|
|--------------------------------|--------------------------------|
|-3-3-3-3------3-3-3-3--3--3--3--|-3-3-3-3------3-3-3-3--3--3--3--|

|--------------------------------|--------------------------------|
|--------------------------------|--------------------------------|
|--------------------------------|--------------------------------|
|-0-0-0-0----0-0-0-0-0--0--0--0--|-0-0-0-0----0-0-0-0-0-00--0--0--|

|--------------------------------|--------------------------------|
|--------------------------------|--------------------------------|
|--------------------------------|--------------------------------|
|-3-3-3-3------3-3-3-3--3--3--3--|-2-2-2-2------2-2-2-2-2--2-2-2--|

|--------------------------------|--------------------------------: 
|--------------------------------|--------------------------------:
|--------------------------------|--------------------------------: 
|-6---\---0-------0-------0---3--|-0-------0---5--b3---0--b3---0--|
 
                          3 times
:--------------------------------|--------------------------------|
:*------------------------------*|--------------------------------|
:*------------------------------*|--------------------------------|
:-0-0-0-0----0-0-0-0-0--0--0--0--|-0-0-0-0----0-0-0-0-0-b5-----3--|

|--------------------------------|--------------------------------|
|--------------------------------|--------------------------------|
|--------------------------------|--------------------------------|
|-3-3-3-3------3-3-3-3--3--3--3--|-3-3-3-3------3-3-3-3-b5-----3--|

|--------------------------------|--------------------------------|
|--------------------------------|--------------------------------|
|--------------------------------|--------------------------------|
|-0-0-0-0----0-0-0-0-0--0--0--0--|-0-0-0-0----0-0-0-0-0-00--0--0--|

|--------------------------------|--------------------------------|
|--------------------------------|-----------------------/-7---7--|
|--------------------------------|---------------------4---0---0--|
|-3-3-3-3------3-3-3-3--3--3--3--|-2---2---2---2---2--------------|

|--------------------------------|--------------------------------: 
|--------------------------------|--------------------------------:
|--------------------------------|--------------------------------: 
|-6---\---0-------0-------0---3--|-0-------0---5--b3---0--b3---0--:
 
                                                            2 times
:--------------------------------|--------------------------------|
:*-------------------------------|-------------------------------*|
:*-------------------------------|-------------------------------*|
:-6-6---6-6----6-6-6-6--6--5--3--|-0---0---3-------3-------0---3--|

|--------------------------------|--------------------------------|
|--------------------------------|--------------------------------|
|--------------------------------|--------------------------------|
|-6-6---6-6----6-6-6-6--6--5--3--|-0---0---3-------3-------0---3--|

|--------------------------------|--------------------------------|
|--------------------------------|--------------------------------|
|--------------------------------|--------------------------------|
|-6------------------------------|-6---\---0-------0-------0---3--|

|--------------------------------|--------------------------------|
|--------------------------------|--------------------------------|
|--------------------------------|--------------------------------|
|-0-------0---5---3---0---3---5--|-0-------0-------0-------0---3--|

|--------------------------------:
|--------------------------------:
|--------------------------------:
|-0-------0---5--b3---0--b3---0--: 

                       3 times
:--------------------------------|--------------------------------|
:*------------------------------*|--------------------------------|
:*------------------------------*|--------------------------------|
:-0-0-0-0----0-0-0-0-0--0--0--0--|-0-0-0-0----0-0-0-0-0-b5-----3--|

|--------------------------------|--------------------------------|
|--------------------------------|--------------------------------|
|--------------------------------|--------------------------------|
|-3-3-3-3------3-3-3-3--3--3--3--|-3-3-3-3------3-3-3-3--3--3--3--|

|--------------------------------|--------------------------------|
|--------------------------------|--------------------------------|
|--------------------------------|--------------------------------|
|-0-0-0-0----0-0-0-0-0--0--0--0--|-0-0-0-0----0-0-0-0-0-00--0--0--|

|--------------------------------|--------------------------------|
|--------------------------------|--------------------------------|
|--------------------------------|--------------------------------|
|-3-3-3-3------3-3-3-3--3--3--3--|-2-2-2-2------2-2-2-2-2--2-2-2--|

|--------------------------------|--------------------------------: 
|--------------------------------|--------------------------------:
|--------------------------------|--------------------------------: 
|-6---\---0-------0-------0---3--|-0-------0---5--b3---0--b3---0--|

                                                            2 times
:--------------------------------|--------------------------------|
:*-------------------------------|-------------------------------*|
:*-------------------------------|-------------------------------*|
:-6-6---6-6----6-6-6-6--6--5--3--|-0---0---3-------3-------0---3--|

|--------------------------------|--------------------------------|
|--------------------------------|--------------------------------|
|--------------------------------|--------------------------------|
|-6-6---6-6----6-6-6-6--6--5--3--|-0---0---3-------3-------0---3--|

|--------------------------------|--------------------------------|
|--------------------------------|*-------------------------------|
|--------------------------------|*-------------------------------|
|-6------------------------------|-0-0-0-0-0------0-0----0-0------|

                           2 times
|--------------------------------:
|-------------------------------*:
|-------------------------------*:
|-0-0-0-0-0------0-0----0-0----0-:

                           4 times                          4 times
:--------------------------------|--------------------------------:
:*------------------------------*|*------------------------------*:
:*------------------------------*|*------------------------------*:
:-3-3-3-3------3-3-3-3--3--3--3--|-0-0-0-0----0-3------0---0---0--:

                                                            2 times
:--------------------------------|--------------------------------|
:*-------------------------------|-------------------------------*|
:*-------------------------------|-------------------------------*|
:-6-6---6-6----6-6-6-6--6--5--3--|-0---0---3-------3-------0---3--|

|--------------------------------|--------------------------------|
|--------------------------------|--------------------------------|
|--------------------------------|--------------------------------|
|-6-6---6-6----6-6-6-6--6--5--3--|-0---0---3-------3-------0---3--|

|--------------------------------:
|--------------------------------:
|--------------------------------:
|-5------------------------------:

                                                            3 times
:--------------------------------|--------------------------------|
:*-------------------------------|-------------------------------*|
:*-------------------------------|-------------------------------*|
:-6---\---0-------0-------0---3--|-0-------0---5---3---0---3---5--|

|--------------------------------|--------------------------------:
|--------------------------------|--------------------------------:
|--------------------------------|--------------------------------:
|-6---\---0-------0-------0---3--|-6---------------5---5----------:

             3 times
:--------------------------------|--------------------------------|
:*------------------------------*|--------------------------------|
:*------------------------------*|--------------------------------|
:-0-0-0-0----0-0-0-0-0--0--0--0--|-0-0-0-0----0-0-0-0-0-b5-----3--|

|--------------------------------|--------------------------------|
|--------------------------------|--------------------------------|
|--------------------------------|--------------------------------|
|-3-3-3-3------3-3-3-3--3--3--3--|-3-3-3-3------3-3-3-3-b5-----3--|

|--------------------------------|--------------------------------|
|--------------------------------|--------------------------------|
|--------------------------------|--------------------------------|
|-0-0-0-0----0-0-0-0-0--0--0--0--|-0-0-0-0----0-0-0-0-0-00--0--0--|

|--------------------------------|--------------------------------|
|--------------------------------|-----------------------/-7---7--|
|--------------------------------|---------------------4---0---0--|
|-3-3-3-3------3-3-3-3--3--3--3--|-2---2---2---2---2--------------|

|--------------------------------|--------------------------------: 
|--------------------------------|--------------------------------:
|--------------------------------|--------------------------------: 
|-6---\---0-------0-------0---3--|-0-------0---5--b3---0--b3---0--:

                                                            2 times
:--------------------------------|--------------------------------|
:*-------------------------------|-------------------------------*|
:*-------------------------------|-------------------------------*|
:-6-6---6-6----6-6-6-6--6--5--3--|-0---0---3-------3-------0---3--|

|--------------------------------|--------------------------------|
|--------------------------------|--------------------------------|
|--------------------------------|--------------------------------|
|-6-6---6-6----6-6-6-6--6--5--3--|-0---0---3-------3-------0---3--|

|--------------------------------|--------------------------------|
|--------------------------------|--------------------------------|
|--------------------------------|--------------------------------|
|-6------------------------------|-6---\---0-------0-------0---3--|

|--------------------------------|--------------------------------|
|--------------------------------|--------------------------------|
|--------------------------------|--------------------------------|
|-0-------0---5--b3---0--b3---0--|-6-6---6-6----6-6-6-6--6--5--3--|

|--------------------------------|--------------------------------:
|--------------------------------|--------------------------------:
|--------------------------------|--------------------------------:
|-0---0---3-------3-------0---3--|-6------------------------------:

well there u go devils dance another heavy ball buster from newsted, enjoi

MetallicaDMRTL

                             \m/Metallica\m/
            
Tabs too difficult? Try these video lessons and learn fast.




comments powered by Disqus
↑ Back to top | Tablatures and chords are parodies/interpretations of the original songs. You may use it for private study, scholarship, research or language learning purposes only