» » »

Metallica, Crash Course In Brain Surgery Bass tabs (ver.2)

Artists:  A B C D E F G H I J K L M N O P Q R S T U V W X Y Z # 

Crash Course In Brain Surgery Bass tabs (ver.2)

Metallica Tabs
 Rating:
4/5 (4 votes)
Crash Course In Brain Surgery lessons Tabs too difficult? Try these video lessons and learn fast
1
                -------------------------------------------------------------------------------
                             Crash Course In Brain Surgery - Metallica
-------------------------------------------------------------------------------
Tuning: drop D DADG
tuned low to high (D,A,D,G)

||---------------------5--6--|--7---------------------||
||*-----------5--6--7--------|-----5--6--7--5--6--7--*||
||*--5--6--7-----------------|-----------------------*|| x4
||---------------------------|------------------------||

||----------------------------||-----------------|----------------|
||*--------------------------*||-----------------|----------------|
||*--------------------------*||--7--5-----2--0--|----------------| x2
||---0--2-----2-----2-----2---||-----------------|--5--2-----0--1-|

||----------------------------|
||*---------------------------|
||*--------------------------*| x16
||---0--2-----2-----2-----2---|

-----------------------|-------------------------|-------------------------|
-----------------------|-------------------------|-------------------------|
-----------------------|-------------------------|-------------------------|
3h5-----5-----5-----5--|--3h5-----5-----5-----5--|--3h5-----5-----5-----5--|

------------|------------------------------|
------------|--12--12--12--12--12--12--12--|
------------|------------------------------|
3--0--------|------------------------------|

||------------------------------||
||*----------------------------*||
||*----------------------------*|| x4
||------0h2-----2-----2-----2---||

||----------------------------|
||*---------------------------|
||*--------------------------*| x16
||---0--2-----2-----2-----2---|

|------------------|
|------------------|
|---7--5-----2--0--|
|------------------|
                                           x4
---------------||----------------------------||-----------------|
---------------||*--------------------------*||-----------------|
---------------||*--------------------------*||--7--5-----------|
5--2-----0--1--||---0--2-----2-----2-----2---||-----------9--7--|

---------|-----|-----|-----|-----|--------|-------|
---------|-----|-----|-----|-----|--------|-------|
---------|-----|-----|-----|-----|--------|-------|
5--2-----|--0--|--1--|--2--|--2--|--0--2--|--2--2-|

                            x8
||----------------------------||--------------|-------------|
||*--------------------------*||--5--3--------|-------------|
||*--------------------------*||--------5--3--|--1----------|
||----3h5-----5-----5-----5---||--------------|-----5--0--1-|
                                                                                         
              x8
||---------------------------||-----------------|--------------|
||*-------------------------*||-----------------|--------------|
||*-------------------------*||--7--5-----2--0--|--------------|
||---0h2-----2-----2-----2---||-----------------|--5--2-----0--|

-------------------------|-----------------------|
-------------------------|-----------------------|
-------------------------|-----------------------|
-5--7--5--7--5--7-----5--|--0--2--0--2--0--5--0--|

------------------------|--------------------|--------------------------|
------------------------|-----0--2--0--------|--------------------------|
------------------------|--------------2-----|--------------------------|
5--7--5--7--5--7-----5--|--2--------------2--|--5--7--5--7--5--7-----5--|

---------------------|--------------------------|-----------------------|
---------------------|--2--1--0-----------------|-----------------------|
------------------2--|-----------2--1--0-----0--|-----------------------|
0--2--0--2--0--2-----|--------------------------|--0--2--0--2--0--5-----|

------------------|-----------------------|
------5-----------|--------5--------------|
5--7-----0--2--5--|--5--7-----7--0--2--5--|
------------------|-----------------------|

                          x8
||---------------------------||-----------------|--------------|
||*-------------------------*||-----------------|--------------|
||*-------------------------*||--7--5-----2--0--|--------------|
||---0h2-----2-----2-----2---||-----------------|--5--2-----0--|

Forwarnd this tab is not likely accurate "x8" wise seeing how im tired u can figure it 
out its all there basically just repeats thats all

MetallicaDMRTL

                             \m/Metallica\m/
            
Submit corrections

comments powered by Disqus
↑ Back to top | Metallica Bass for Crash Course In Brain Surgery. Lyrics for acoustic guitar and electric guitar. 1 Tablatures and chords are parodies/interpretations of the original songs. You may use it for private study, scholarship, research or language learning purposes only